999
dxflib 2.1.2.0
  0
SECTION
  2
HEADER
  9
$ACADVER
  1
AC1015
  9
$HANDSEED
  5
FFFF
  9
$DIMASZ
 40
2.5
  9
$PLIMMIN
 10
0.0
 20
0.0
  9
$DIMEXE
 40
1.25
  9
$DIMGAP
 40
0.625
  9
$PLIMMAX
 10
210.0
 20
297.0
  9
$PSVPSCALE
 40
0.7295160000000001
  9
$PINSBASE
 10
19.7952181877565074
 20
121.5358650546580606
 30
0.0
  9
$INSUNITS
 70
4
  9
$DIMEXO
 40
0.625
  9
$DIMTXT
 40
2.5
  9
$CLAYER
  8
2-Triangles
  0
ENDSEC
  0
SECTION
  2
TABLES
  0
TABLE
  2
VPORT
  5
8
100
AcDbSymbolTable
 70
1
  0
VPORT
  5
30
100
AcDbSymbolTableRecord
100
AcDbViewportTableRecord
  2
*Active
 70
0
 10
0.0
 20
0.0
 11
1.0
 21
1.0
 12
286.3055555555554861
 22
148.5
 13
0.0
 23
0.0
 14
10.0
 24
10.0
 15
10.0
 25
10.0
 16
0.0
 26
0.0
 36
1.0
 17
0.0
 27
0.0
 37
0.0
 40
297.0
 41
1.92798353909465
 42
50.0
 43
0.0
 44
0.0
 50
0.0
 51
0.0
 71
0
 72
100
 73
1
 74
3
 75
1
 76
1
 77
0
 78
0
281
0
 65
1
110
0.0
120
0.0
130
0.0
111
1.0
121
0.0
131
0.0
112
0.0
122
1.0
132
0.0
 79
0
146
0.0
  0
ENDTAB
  0
TABLE
  2
LTYPE
  5
5
100
AcDbSymbolTable
 70
21
  0
LTYPE
  5
14
100
AcDbSymbolTableRecord
100
AcDbLinetypeTableRecord
  2
ByBlock
 70
0
  3

 72
65
 73
0
 40
0.0
  0
LTYPE
  5
15
100
AcDbSymbolTableRecord
100
AcDbLinetypeTableRecord
  2
ByLayer
 70
0
  3

 72
65
 73
0
 40
0.0
  0
LTYPE
  5
16
100
AcDbSymbolTableRecord
100
AcDbLinetypeTableRecord
  2
CONTINUOUS
 70
0
  3
Solid line
 72
65
 73
0
 40
0.0
  0
LTYPE
  5
31
100
AcDbSymbolTableRecord
100
AcDbLinetypeTableRecord
  2
DOT
 70
0
  3
Dot . . . . . . . . . . . . . . . . . . . . . .
 72
65
 73
2
 40
6.3499999999999996
 49
0.0
 74
0
 49
-6.3499999999999996
 74
0
  0
LTYPE
  5
32
100
AcDbSymbolTableRecord
100
AcDbLinetypeTableRecord
  2
DOT2
 70
0
  3
Dot (.5x) .....................................
 72
65
 73
2
 40
3.1749999999999998
 49
0.0
 74
0
 49
-3.1749999999999998
 74
0
  0
LTYPE
  5
33
100
AcDbSymbolTableRecord
100
AcDbLinetypeTableRecord
  2
DOTX2
 70
0
  3
Dot (2x) .  .  .  .  .  .  .  .  .  .  .  .  .
 72
65
 73
2
 40
12.6999999999999993
 49
0.0
 74
0
 49
-12.6999999999999993
 74
0
  0
LTYPE
  5
34
100
AcDbSymbolTableRecord
100
AcDbLinetypeTableRecord
  2
DASHED
 70
0
  3
Dashed __ __ __ __ __ __ __ __ __ __ __ __ __ _
 72
65
 73
2
 40
19.0500000000000007
 49
12.6999999999999993
 74
0
 49
-6.3499999999999996
 74
0
  0
LTYPE
  5
35
100
AcDbSymbolTableRecord
100
AcDbLinetypeTableRecord
  2
DASHED2
 70
0
  3
Dashed (.5x) _ _ _ _ _ _ _ _ _ _ _ _ _ _ _ _ _
 72
65
 73
2
 40
9.5250000000000004
 49
6.3499999999999996
 74
0
 49
-3.1749999999999998
 74
0
  0
LTYPE
  5
36
100
AcDbSymbolTableRecord
100
AcDbLinetypeTableRecord
  2
DASHEDX2
 70
0
  3
Dashed (2x) ____  ____  ____  ____  ____  ___
 72
65
 73
2
 40
38.1000000000000014
 49
25.3999999999999986
 74
0
 49
-12.6999999999999993
 74
0
  0
LTYPE
  5
37
100
AcDbSymbolTableRecord
100
AcDbLinetypeTableRecord
  2
DASHDOT
 70
0
  3
Dash dot __ . __ . __ . __ . __ . __ . __ . __
 72
65
 73
4
 40
25.3999999999999986
 49
12.6999999999999993
 74
0
 49
-6.3499999999999996
 74
0
 49
0.0
 74
0
 49
-6.3499999999999996
 74
0
  0
LTYPE
  5
38
100
AcDbSymbolTableRecord
100
AcDbLinetypeTableRecord
  2
DASHDOT2
 70
0
  3
Dash dot (.5x) _._._._._._._._._._._._._._._.
 72
65
 73
4
 40
12.6999999999999993
 49
6.3499999999999996
 74
0
 49
-3.1749999999999998
 74
0
 49
0.0
 74
0
 49
-3.1749999999999998
 74
0
  0
LTYPE
  5
39
100
AcDbSymbolTableRecord
100
AcDbLinetypeTableRecord
  2
DASHDOTX2
 70
0
  3
Dash dot (2x) ____  .  ____  .  ____  .  ___
 72
65
 73
4
 40
50.7999999999999972
 49
25.3999999999999986
 74
0
 49
-12.6999999999999993
 74
0
 49
0.0
 74
0
 49
-12.6999999999999993
 74
0
  0
LTYPE
  5
3A
100
AcDbSymbolTableRecord
100
AcDbLinetypeTableRecord
  2
DIVIDE
 70
0
  3
Divide ____ . . ____ . . ____ . . ____ . . ____
 72
65
 73
6
 40
31.75
 49
12.6999999999999993
 74
0
 49
-6.3499999999999996
 74
0
 49
0.0
 74
0
 49
-6.3499999999999996
 74
0
 49
0.0
 74
0
 49
-6.3499999999999996
 74
0
  0
LTYPE
  5
3B
100
AcDbSymbolTableRecord
100
AcDbLinetypeTableRecord
  2
DIVIDE2
 70
0
  3
Divide (.5x) __..__..__..__..__..__..__..__.._
 72
65
 73
6
 40
15.875
 49
6.3499999999999996
 74
0
 49
-3.1749999999999998
 74
0
 49
0.0
 74
0
 49
-3.1749999999999998
 74
0
 49
0.0
 74
0
 49
-3.1749999999999998
 74
0
  0
LTYPE
  5
3C
100
AcDbSymbolTableRecord
100
AcDbLinetypeTableRecord
  2
DIVIDEX2
 70
0
  3
Divide (2x) ________  .  .  ________  .  .  _
 72
65
 73
6
 40
63.5
 49
25.3999999999999986
 74
0
 49
-12.6999999999999993
 74
0
 49
0.0
 74
0
 49
-12.6999999999999993
 74
0
 49
0.0
 74
0
 49
-12.6999999999999993
 74
0
  0
LTYPE
  5
3D
100
AcDbSymbolTableRecord
100
AcDbLinetypeTableRecord
  2
CENTER
 70
0
  3
Center ____ _ ____ _ ____ _ ____ _ ____ _ ____
 72
65
 73
4
 40
50.7999999999999972
 49
31.75
 74
0
 49
-6.3499999999999996
 74
0
 49
6.3499999999999996
 74
0
 49
-6.3499999999999996
 74
0
  0
LTYPE
  5
3E
100
AcDbSymbolTableRecord
100
AcDbLinetypeTableRecord
  2
CENTER2
 70
0
  3
Center (.5x) ___ _ ___ _ ___ _ ___ _ ___ _ ___
 72
65
 73
4
 40
28.5749999999999993
 49
19.0500000000000007
 74
0
 49
-3.1749999999999998
 74
0
 49
3.1749999999999998
 74
0
 49
-3.1749999999999998
 74
0
  0
LTYPE
  5
3F
100
AcDbSymbolTableRecord
100
AcDbLinetypeTableRecord
  2
CENTERX2
 70
0
  3
Center (2x) ________  __  ________  __  _____
 72
65
 73
4
 40
101.5999999999999943
 49
63.5
 74
0
 49
-12.6999999999999993
 74
0
 49
12.6999999999999993
 74
0
 49
-12.6999999999999993
 74
0
  0
LTYPE
  5
40
100
AcDbSymbolTableRecord
100
AcDbLinetypeTableRecord
  2
BORDER
 70
0
  3
Border __ __ . __ __ . __ __ . __ __ . __ __ .
 72
65
 73
6
 40
44.4500000000000028
 49
12.6999999999999993
 74
0
 49
-6.3499999999999996
 74
0
 49
12.6999999999999993
 74
0
 49
-6.3499999999999996
 74
0
 49
0.0
 74
0
 49
-6.3499999999999996
 74
0
  0
LTYPE
  5
41
100
AcDbSymbolTableRecord
100
AcDbLinetypeTableRecord
  2
BORDER2
 70
0
  3
Border (.5x) __.__.__.__.__.__.__.__.__.__.__.
 72
65
 73
6
 40
22.2250000000000014
 49
6.3499999999999996
 74
0
 49
-3.1749999999999998
 74
0
 49
6.3499999999999996
 74
0
 49
-3.1749999999999998
 74
0
 49
0.0
 74
0
 49
-3.1749999999999998
 74
0
  0
LTYPE
  5
42
100
AcDbSymbolTableRecord
100
AcDbLinetypeTableRecord
  2
BORDERX2
 70
0
  3
Border (2x) ____  ____  .  ____  ____  .  ___
 72
65
 73
6
 40
88.9000000000000057
 49
25.3999999999999986
 74
0
 49
-12.6999999999999993
 74
0
 49
25.3999999999999986
 74
0
 49
-12.6999999999999993
 74
0
 49
0.0
 74
0
 49
-12.6999999999999993
 74
0
  0
ENDTAB
  0
TABLE
  2
LAYER
  5
2
100
AcDbSymbolTable
 70
9
  0
LAYER
  5
10
100
AcDbSymbolTableRecord
100
AcDbLayerTableRecord
  2
0
 70
0
 62
7
  6
CONTINUOUS
370
120
390
F
  0
LAYER
  5
43
100
AcDbSymbolTableRecord
100
AcDbLayerTableRecord
  2
1
 70
0
 62
1
  6
CONTINUOUS
370
60
390
F
  0
LAYER
  5
44
100
AcDbSymbolTableRecord
100
AcDbLayerTableRecord
  2
2
 70
0
 62
3
  6
CONTINUOUS
370
20
390
F
  0
LAYER
  5
45
100
AcDbSymbolTableRecord
100
AcDbLayerTableRecord
  2
0-Vertices
 70
0
 62
7
  6
CONTINUOUS
370
0
390
F
  0
LAYER
  5
46
100
AcDbSymbolTableRecord
100
AcDbLayerTableRecord
  2
1-Vertices
 70
0
 62
1
  6
CONTINUOUS
370
0
390
F
  0
LAYER
  5
47
100
AcDbSymbolTableRecord
100
AcDbLayerTableRecord
  2
2-Vertices
 70
0
 62
3
  6
CONTINUOUS
370
0
390
F
  0
LAYER
  5
48
100
AcDbSymbolTableRecord
100
AcDbLayerTableRecord
  2
0-Triangles
 70
0
 62
7
  6
CONTINUOUS
370
0
390
F
  0
LAYER
  5
49
100
AcDbSymbolTableRecord
100
AcDbLayerTableRecord
  2
1-Triangles
 70
0
 62
1
  6
CONTINUOUS
370
0
390
F
  0
LAYER
  5
4A
100
AcDbSymbolTableRecord
100
AcDbLayerTableRecord
  2
2-Triangles
 70
0
 62
3
  6
CONTINUOUS
370
0
390
F
  0
ENDTAB
  0
TABLE
  2
STYLE
  5
3
100
AcDbSymbolTable
 70
1
  0
STYLE
  5
11
100
AcDbSymbolTableRecord
100
AcDbTextStyleTableRecord
  2
Standard
 70
0
 40
0.0
 41
0.75
 50
0.0
 71
0
 42
2.5
  3
txt
  4

  0
ENDTAB
  0
TABLE
  2
VIEW
  5
6
100
AcDbSymbolTable
 70
0
  0
ENDTAB
  0
TABLE
  2
UCS
  5
7
100
AcDbSymbolTable
 70
0
  0
ENDTAB
  0
TABLE
  2
APPID
  5
9
100
AcDbSymbolTable
 70
1
  0
APPID
  5
12
100
AcDbSymbolTableRecord
100
AcDbRegAppTableRecord
  2
ACAD
 70
0
  0
ENDTAB
  0
TABLE
  2
DIMSTYLE
  5
A
100
AcDbSymbolTable
 70
1
100
AcDbDimStyleTable
 71
0
  0
DIMSTYLE
105
27
100
AcDbSymbolTableRecord
100
AcDbDimStyleTableRecord
  2
Standard
 41
2.5
 42
0.625
 43
3.75
 44
1.25
 70
0
 73
0
 74
0
 77
1
 78
8
140
2.5
141
2.5
143
0.03937007874016
147
0.625
171
3
172
1
271
2
272
2
274
3
278
44
283
0
284
8
340
11
  0
ENDTAB
  0
TABLE
  2
BLOCK_RECORD
  5
1
100
AcDbSymbolTable
 70
1
  0
BLOCK_RECORD
  5
1F
100
AcDbSymbolTableRecord
100
AcDbBlockTableRecord
  2
*Model_Space
340
22
  0
BLOCK_RECORD
  5
1B
100
AcDbSymbolTableRecord
100
AcDbBlockTableRecord
  2
*Paper_Space
340
1E
  0
BLOCK_RECORD
  5
23
100
AcDbSymbolTableRecord
100
AcDbBlockTableRecord
  2
*Paper_Space0
340
26
  0
ENDTAB
  0
ENDSEC
  0
SECTION
  2
BLOCKS
  0
BLOCK
  5
20
100
AcDbEntity
  8
0
100
AcDbBlockBegin
  2
*Model_Space
 70
0
 10
0.0
 20
0.0
 30
0.0
  3
*Model_Space
  1

  0
ENDBLK
  5
21
100
AcDbEntity
  8
0
100
AcDbBlockEnd
  0
BLOCK
  5
1C
100
AcDbEntity
 67
1
  8
0
100
AcDbBlockBegin
  2
*Paper_Space
 70
0
 10
0.0
 20
0.0
 30
0.0
  3
*Paper_Space
  1

  0
ENDBLK
  5
1D
100
AcDbEntity
 67
1
  8
0
100
AcDbBlockEnd
  0
BLOCK
  5
24
100
AcDbEntity
  8
0
100
AcDbBlockBegin
  2
*Paper_Space0
 70
0
 10
0.0
 20
0.0
 30
0.0
  3
*Paper_Space0
  1

  0
ENDBLK
  5
25
100
AcDbEntity
  8
0
100
AcDbBlockEnd
  0
ENDSEC
  0
SECTION
  2
ENTITIES
  0
LINE
  5
4B
100
AcDbEntity
100
AcDbLine
  8
0
 62
256
370
-1
  6
ByLayer
 10
0.0
 20
0.0
 30
0.0
 11
50.0
 21
80.0
 31
0.0
  0
LINE
  5
4C
100
AcDbEntity
100
AcDbLine
  8
0
 62
256
370
-1
  6
ByLayer
 10
50.0
 20
80.0
 30
0.0
 11
90.0
 21
-10.0
 31
0.0
  0
LINE
  5
4D
100
AcDbEntity
100
AcDbLine
  8
0
 62
256
370
-1
  6
ByLayer
 10
90.0
 20
-10.0
 30
0.0
 11
0.0
 21
0.0
 31
0.0
  0
LINE
  5
4E
100
AcDbEntity
100
AcDbLine
  8
0
 62
256
370
-1
  6
ByLayer
 10
50.0
 20
80.0
 30
0.0
 11
140.0
 21
90.0
 31
0.0
  0
LINE
  5
4F
100
AcDbEntity
100
AcDbLine
  8
0
 62
256
370
-1
  6
ByLayer
 10
140.0
 20
90.0
 30
0.0
 11
90.0
 21
-10.0
 31
0.0
  0
LINE
  5
50
100
AcDbEntity
100
AcDbLine
  8
0
 62
256
370
-1
  6
ByLayer
 10
90.0
 20
-10.0
 30
0.0
 11
180.0
 21
-10.0
 31
0.0
  0
LINE
  5
51
100
AcDbEntity
100
AcDbLine
  8
0
 62
256
370
-1
  6
ByLayer
 10
180.0
 20
-10.0
 30
0.0
 11
140.0
 21
90.0
 31
0.0
  0
LINE
  5
52
100
AcDbEntity
100
AcDbLine
  8
0
 62
256
370
-1
  6
ByLayer
 10
140.0
 20
90.0
 30
0.0
 11
220.0
 21
60.0
 31
0.0
  0
LINE
  5
53
100
AcDbEntity
100
AcDbLine
  8
0
 62
256
370
-1
  6
ByLayer
 10
220.0
 20
60.0
 30
0.0
 11
180.0
 21
-10.0
 31
0.0
  0
LINE
  5
54
100
AcDbEntity
100
AcDbLine
  8
0
 62
256
370
-1
  6
ByLayer
 10
180.0
 20
-10.0
 30
0.0
 11
140.0
 21
-70.0
 31
0.0
  0
LINE
  5
55
100
AcDbEntity
100
AcDbLine
  8
0
 62
256
370
-1
  6
ByLayer
 10
140.0
 20
-70.0
 30
0.0
 11
90.0
 21
-10.0
 31
0.0
  0
LINE
  5
56
100
AcDbEntity
100
AcDbLine
  8
0
 62
256
370
-1
  6
ByLayer
 10
90.0
 20
-10.0
 30
0.0
 11
60.0
 21
-70.0
 31
0.0
  0
LINE
  5
57
100
AcDbEntity
100
AcDbLine
  8
0
 62
256
370
-1
  6
ByLayer
 10
60.0
 20
-70.0
 30
0.0
 11
140.0
 21
-70.0
 31
0.0
  0
LINE
  5
58
100
AcDbEntity
100
AcDbLine
  8
0
 62
256
370
-1
  6
ByLayer
 10
0.0
 20
0.0
 30
0.0
 11
60.0
 21
-70.0
 31
0.0
  0
LINE
  5
59
100
AcDbEntity
100
AcDbLine
  8
0
 62
256
370
-1
  6
ByLayer
 10
140.0
 20
-70.0
 30
0.0
 11
240.0
 21
-60.0
 31
0.0
  0
LINE
  5
5A
100
AcDbEntity
100
AcDbLine
  8
0
 62
256
370
-1
  6
ByLayer
 10
240.0
 20
-60.0
 30
0.0
 11
180.0
 21
-10.0
 31
0.0
  0
LINE
  5
5B
100
AcDbEntity
100
AcDbLine
  8
0
 62
256
370
-1
  6
ByLayer
 10
220.0
 20
60.0
 30
0.0
 11
240.0
 21
-60.0
 31
0.0
  0
LINE
  5
5C
100
AcDbEntity
100
AcDbLine
  8
0
 62
256
370
-1
  6
ByLayer
 10
50.0
 20
80.0
 30
0.0
 11
130.0
 21
150.0
 31
0.0
  0
LINE
  5
5D
100
AcDbEntity
100
AcDbLine
  8
0
 62
256
370
-1
  6
ByLayer
 10
130.0
 20
150.0
 30
0.0
 11
140.0
 21
90.0
 31
0.0
  0
LINE
  5
5E
100
AcDbEntity
100
AcDbLine
  8
0
 62
256
370
-1
  6
ByLayer
 10
140.0
 20
90.0
 30
0.0
 11
200.0
 21
120.0
 31
0.0
  0
LINE
  5
5F
100
AcDbEntity
100
AcDbLine
  8
0
 62
256
370
-1
  6
ByLayer
 10
130.0
 20
150.0
 30
0.0
 11
200.0
 21
120.0
 31
0.0
  0
LINE
  5
60
100
AcDbEntity
100
AcDbLine
  8
0
 62
256
370
-1
  6
ByLayer
 10
200.0
 20
120.0
 30
0.0
 11
220.0
 21
60.0
 31
0.0
  0
LINE
  5
61
100
AcDbEntity
100
AcDbLine
  8
1
 62
256
370
-1
  6
ByLayer
 10
115.0000891911591054
 20
40.0001783823182038
 30
0.0
 11
159.9999450076830101
 21
40.0001374807924535
 31
0.0
  0
LINE
  5
62
100
AcDbEntity
100
AcDbLine
  8
1
 62
256
370
-1
  6
ByLayer
 10
159.9999450076830101
 20
40.0001374807924535
 30
0.0
 11
135.0
 21
-10.0
 31
0.0
  0
LINE
  5
63
100
AcDbEntity
100
AcDbLine
  8
1
 62
256
370
-1
  6
ByLayer
 10
135.0
 20
-10.0
 30
0.0
 11
115.0000891911591054
 21
40.0001783823182038
 31
0.0
  0
LINE
  5
64
100
AcDbEntity
100
AcDbLine
  8
1
 62
256
370
-1
  6
ByLayer
 10
115.0000891911591054
 20
40.0001783823182038
 30
0.0
 11
68.2762309724051448
 21
38.8784803120884277
 31
0.0
  0
LINE
  5
65
100
AcDbEntity
100
AcDbLine
  8
1
 62
256
370
-1
  6
ByLayer
 10
68.2762309724051448
 20
38.8784803120884277
 30
0.0
 11
95.2752319396871599
 21
85.0305813266319035
 31
0.0
  0
LINE
  5
66
100
AcDbEntity
100
AcDbLine
  8
1
 62
256
370
-1
  6
ByLayer
 10
95.2752319396871599
 20
85.0305813266319035
 30
0.0
 11
115.0000891911591054
 21
40.0001783823182038
 31
0.0
  0
LINE
  5
67
100
AcDbEntity
100
AcDbLine
  8
1
 62
256
370
-1
  6
ByLayer
 10
159.9999450076830101
 20
40.0001374807924535
 30
0.0
 11
180.0000175342504178
 21
74.9999934246560827
 31
0.0
  0
LINE
  5
68
100
AcDbEntity
100
AcDbLine
  8
1
 62
256
370
-1
  6
ByLayer
 10
180.0000175342504178
 20
74.9999934246560827
 30
0.0
 11
201.1950554466039307
 21
27.0913470315568894
 31
0.0
  0
LINE
  5
69
100
AcDbEntity
100
AcDbLine
  8
1
 62
256
370
-1
  6
ByLayer
 10
201.1950554466039307
 20
27.0913470315568894
 30
0.0
 11
159.9999450076830101
 21
40.0001374807924606
 31
0.0
  0
LINE
  5
6A
100
AcDbEntity
100
AcDbLine
  8
1
 62
256
370
-1
  6
ByLayer
 10
114.9999989626024757
 20
-39.9999987551229665
 30
0.0
 11
135.0
 21
-10.0
 31
0.0
  0
LINE
  5
6B
100
AcDbEntity
100
AcDbLine
  8
1
 62
256
370
-1
  6
ByLayer
 10
135.0
 20
-10.0
 30
0.0
 11
159.9997155749006481
 21
-40.0004266376490492
 31
0.0
  0
LINE
  5
6C
100
AcDbEntity
100
AcDbLine
  8
1
 62
256
370
-1
  6
ByLayer
 10
159.9997155749006481
 20
-40.0004266376490492
 30
0.0
 11
114.9999989626024757
 21
-39.9999987551229665
 31
0.0
  0
LINE
  5
6D
100
AcDbEntity
100
AcDbLine
  8
1
 62
256
370
-1
  6
ByLayer
 10
115.0000891911591054
 20
40.0001783823182038
 30
0.0
 11
140.0
 21
90.0
 31
0.0
  0
LINE
  5
6E
100
AcDbEntity
100
AcDbLine
  8
1
 62
256
370
-1
  6
ByLayer
 10
140.0
 20
90.0
 30
0.0
 11
95.2752319396871599
 21
85.0305813266319177
 31
0.0
  0
LINE
  5
6F
100
AcDbEntity
100
AcDbLine
  8
1
 62
256
370
-1
  6
ByLayer
 10
95.2752319396871599
 20
85.0305813266319177
 30
0.0
 11
50.0
 21
80.0
 31
0.0
  0
LINE
  5
70
100
AcDbEntity
100
AcDbLine
  8
1
 62
256
370
-1
  6
ByLayer
 10
50.0
 20
80.0
 30
0.0
 11
68.2762309724051448
 21
38.8784803120884348
 31
0.0
  0
LINE
  5
71
100
AcDbEntity
100
AcDbLine
  8
1
 62
256
370
-1
  6
ByLayer
 10
68.2762309724051448
 20
38.8784803120884348
 30
0.0
 11
90.0
 21
-10.0
 31
0.0
  0
LINE
  5
72
100
AcDbEntity
100
AcDbLine
  8
1
 62
256
370
-1
  6
ByLayer
 10
90.0
 20
-10.0
 30
0.0
 11
115.0000891911591054
 21
40.0001783823181967
 31
0.0
  0
LINE
  5
73
100
AcDbEntity
100
AcDbLine
  8
1
 62
256
370
-1
  6
ByLayer
 10
140.0
 20
90.0
 30
0.0
 11
220.0
 21
60.0
 31
0.0
  0
LINE
  5
74
100
AcDbEntity
100
AcDbLine
  8
1
 62
256
370
-1
  6
ByLayer
 10
220.0
 20
60.0
 30
0.0
 11
180.0
 21
-10.0
 31
0.0
  0
LINE
  5
75
100
AcDbEntity
100
AcDbLine
  8
1
 62
256
370
-1
  6
ByLayer
 10
180.0
 20
-10.0
 30
0.0
 11
159.9999450076830385
 21
40.0001374807924535
 31
0.0
  0
LINE
  5
76
100
AcDbEntity
100
AcDbLine
  8
1
 62
256
370
-1
  6
ByLayer
 10
159.9999450076830385
 20
40.0001374807924535
 30
0.0
 11
140.0
 21
90.0
 31
0.0
  0
LINE
  5
77
100
AcDbEntity
100
AcDbLine
  8
1
 62
256
370
-1
  6
ByLayer
 10
90.0
 20
-10.0
 30
0.0
 11
180.0
 21
-10.0
 31
0.0
  0
LINE
  5
78
100
AcDbEntity
100
AcDbLine
  8
1
 62
256
370
-1
  6
ByLayer
 10
180.0
 20
-10.0
 30
0.0
 11
140.0
 21
-70.0
 31
0.0
  0
LINE
  5
79
100
AcDbEntity
100
AcDbLine
  8
1
 62
256
370
-1
  6
ByLayer
 10
140.0
 20
-70.0
 30
0.0
 11
90.0
 21
-10.0
 31
0.0
  0
LINE
  5
7A
100
AcDbEntity
100
AcDbLine
  8
2
 62
256
370
-1
  6
ByLayer
 10
105.1376539098557146
 20
62.5153950486475196
 30
0.0
 11
117.6376159698435799
 21
87.5152906633159517
 31
0.0
  0
LINE
  5
7B
100
AcDbEntity
100
AcDbLine
  8
2
 62
256
370
-1
  6
ByLayer
 10
117.6376159698435799
 20
87.5152906633159517
 30
0.0
 11
127.5000445955795527
 21
65.0000891911591054
 31
0.0
  0
LINE
  5
7C
100
AcDbEntity
100
AcDbLine
  8
2
 62
256
370
-1
  6
ByLayer
 10
127.5000445955795527
 20
65.0000891911591054
 30
0.0
 11
105.1376539098557146
 21
62.5153950486475196
 31
0.0
  0
LINE
  5
7D
100
AcDbEntity
100
AcDbLine
  8
2
 62
256
370
-1
  6
ByLayer
 10
137.5000391911498241
 20
40.0001579315352487
 30
0.0
 11
127.5000445955795527
 21
65.0000891911591054
 31
0.0
  0
LINE
  5
7E
100
AcDbEntity
100
AcDbLine
  8
2
 62
256
370
-1
  6
ByLayer
 10
127.5000445955795527
 20
65.0000891911591054
 30
0.0
 11
149.9999725038415193
 21
65.0000687403962303
 31
0.0
  0
LINE
  5
7F
100
AcDbEntity
100
AcDbLine
  8
2
 62
256
370
-1
  6
ByLayer
 10
149.9999725038415193
 20
65.0000687403962303
 30
0.0
 11
137.5000391911498241
 21
40.0001579315352487
 31
0.0
  0
LINE
  5
80
100
AcDbEntity
100
AcDbLine
  8
2
 62
256
370
-1
  6
ByLayer
 10
125.000040987657556
 20
15.000098211036514
 30
0.0
 11
137.5000391911498241
 21
40.0001579315352558
 31
0.0
  0
LINE
  5
81
100
AcDbEntity
100
AcDbLine
  8
2
 62
256
370
-1
  6
ByLayer
 10
137.5000391911498241
 20
40.0001579315352558
 30
0.0
 11
147.4999729933480523
 21
15.0000697194141779
 31
0.0
  0
LINE
  5
82
100
AcDbEntity
100
AcDbLine
  8
2
 62
256
370
-1
  6
ByLayer
 10
147.4999729933480523
 20
15.0000697194141779
 30
0.0
 11
125.000040987657556
 21
15.0000982110365175
 31
0.0
  0
LINE
  5
83
100
AcDbEntity
100
AcDbLine
  8
2
 62
256
370
-1
  6
ByLayer
 10
102.5001337867386582
 20
15.0002675734773092
 30
0.0
 11
125.000040987657556
 21
15.000098211036514
 31
0.0
  0
LINE
  5
84
100
AcDbEntity
100
AcDbLine
  8
2
 62
256
370
-1
  6
ByLayer
 10
125.000040987657556
 20
15.000098211036514
 30
0.0
 11
112.5
 21
-10.0
 31
0.0
  0
LINE
  5
85
100
AcDbEntity
100
AcDbLine
  8
2
 62
256
370
-1
  6
ByLayer
 10
112.5
 20
-10.0
 30
0.0
 11
102.5001337867386582
 21
15.0002675734773092
 31
0.0
  0
LINE
  5
86
100
AcDbEntity
100
AcDbLine
  8
2
 62
256
370
-1
  6
ByLayer
 10
102.5001337867386582
 20
15.0002675734773092
 30
0.0
 11
115.0000891911591054
 21
40.0001783823181967
 31
0.0
  0
LINE
  5
87
100
AcDbEntity
100
AcDbLine
  8
2
 62
256
370
-1
  6
ByLayer
 10
115.0000891911591054
 20
40.0001783823181967
 30
0.0
 11
125.000040987657556
 21
15.0000982110365051
 31
0.0
  0
LINE
  5
88
100
AcDbEntity
100
AcDbLine
  8
2
 62
256
370
-1
  6
ByLayer
 10
125.000040987657556
 20
15.0000982110365051
 30
0.0
 11
135.0
 21
-10.0
 31
0.0
  0
LINE
  5
89
100
AcDbEntity
100
AcDbLine
  8
2
 62
256
370
-1
  6
ByLayer
 10
135.0
 20
-10.0
 30
0.0
 11
112.5
 21
-10.0000000000000071
 31
0.0
  0
LINE
  5
8A
100
AcDbEntity
100
AcDbLine
  8
2
 62
256
370
-1
  6
ByLayer
 10
112.5
 20
-10.0000000000000071
 30
0.0
 11
90.0
 21
-10.0
 31
0.0
  0
LINE
  5
8B
100
AcDbEntity
100
AcDbLine
  8
2
 62
256
370
-1
  6
ByLayer
 10
90.0
 20
-10.0
 30
0.0
 11
102.5001337867386582
 21
15.0002675734773092
 31
0.0
  0
LINE
  5
8C
100
AcDbEntity
100
AcDbLine
  8
2
 62
256
370
-1
  6
ByLayer
 10
135.0
 20
-10.0
 30
0.0
 11
147.4999729933480523
 21
15.0000697194141779
 31
0.0
  0
LINE
  5
8D
100
AcDbEntity
100
AcDbLine
  8
2
 62
256
370
-1
  6
ByLayer
 10
147.4999729933480523
 20
15.0000697194141779
 30
0.0
 11
159.9999450076830101
 21
40.0001374807924535
 31
0.0
  0
LINE
  5
8E
100
AcDbEntity
100
AcDbLine
  8
2
 62
256
370
-1
  6
ByLayer
 10
159.9999450076830101
 20
40.0001374807924535
 30
0.0
 11
137.5000391911498241
 21
40.0001579315352487
 31
0.0
  0
LINE
  5
8F
100
AcDbEntity
100
AcDbLine
  8
2
 62
256
370
-1
  6
ByLayer
 10
137.5000391911498241
 20
40.0001579315352487
 30
0.0
 11
115.0000891911591054
 21
40.0001783823182038
 31
0.0
  0
LINE
  5
90
100
AcDbEntity
100
AcDbLine
  8
2
 62
256
370
-1
  6
ByLayer
 10
115.0000891911591054
 20
40.0001783823182038
 30
0.0
 11
127.5000445955795527
 21
65.0000891911591054
 31
0.0
  0
LINE
  5
91
100
AcDbEntity
100
AcDbLine
  8
2
 62
256
370
-1
  6
ByLayer
 10
127.5000445955795527
 20
65.0000891911591054
 30
0.0
 11
140.0
 21
90.0
 31
0.0
  0
LINE
  5
92
100
AcDbEntity
100
AcDbLine
  8
2
 62
256
370
-1
  6
ByLayer
 10
140.0
 20
90.0
 30
0.0
 11
149.9999725038414908
 21
65.0000687403962303
 31
0.0
  0
LINE
  5
93
100
AcDbEntity
100
AcDbLine
  8
2
 62
256
370
-1
  6
ByLayer
 10
149.9999725038414908
 20
65.0000687403962303
 30
0.0
 11
159.9999450076830101
 21
40.0001374807924535
 31
0.0
  0
LINE
  5
94
100
AcDbEntity
100
AcDbLine
  8
2
 62
256
370
-1
  6
ByLayer
 10
140.0
 20
90.0
 30
0.0
 11
95.2752319396872025
 21
85.0305813266319177
 31
0.0
  0
LINE
  5
95
100
AcDbEntity
100
AcDbLine
  8
2
 62
256
370
-1
  6
ByLayer
 10
95.2752319396872025
 20
85.0305813266319177
 30
0.0
 11
115.0000891911591054
 21
40.0001783823181896
 31
0.0
  0
MTEXT
  5
96
100
AcDbEntity
100
AcDbMText
  8
0-Vertices
 62
256
370
-1
  6
ByLayer
 10
-4.3945312500000435
 20
4.3945312500000435
 30
0.0
 40
4.0
 41
100.0
 71
1
 72
0
  1
0
  7
normal
 50
0.0
 73
1
 44
1.0
  0
MTEXT
  5
97
100
AcDbEntity
100
AcDbMText
  8
0-Vertices
 62
256
370
-1
  6
ByLayer
 10
54.6875000000005471
 20
-72.7539062500007248
 30
0.0
 40
4.0
 41
100.0
 71
1
 72
0
  1
1
  7
normal
 50
0.0
 73
1
 44
1.0
  0
MTEXT
  5
98
100
AcDbEntity
100
AcDbMText
  8
0-Vertices
 62
256
370
-1
  6
ByLayer
 10
81.54296875000081
 20
-13.1835937500001315
 30
0.0
 40
4.0
 41
100.0
 71
1
 72
0
  1
2
  7
normal
 50
0.0
 73
1
 44
1.0
  0
MTEXT
  5
99
100
AcDbEntity
100
AcDbMText
  8
0-Vertices
 62
256
370
-1
  6
ByLayer
 10
141.1132812500013927
 20
-74.218750000000739
 30
0.0
 40
4.0
 41
100.0
 71
1
 72
0
  1
3
  7
normal
 50
0.0
 73
1
 44
1.0
  0
MTEXT
  5
9A
100
AcDbEntity
100
AcDbMText
  8
0-Vertices
 62
256
370
-1
  6
ByLayer
 10
243.1640625000024158
 20
-61.5234375000006111
 30
0.0
 40
4.0
 41
100.0
 71
1
 72
0
  1
4
  7
normal
 50
0.0
 73
1
 44
1.0
  0
MTEXT
  5
9B
100
AcDbEntity
100
AcDbMText
  8
0-Vertices
 62
256
370
-1
  6
ByLayer
 10
187.5000000000018758
 20
-8.3007812500000835
 30
0.0
 40
4.0
 41
100.0
 71
1
 72
0
  1
5
  7
normal
 50
0.0
 73
1
 44
1.0
  0
MTEXT
  5
9C
100
AcDbEntity
100
AcDbMText
  8
0-Vertices
 62
256
370
-1
  6
ByLayer
 10
223.6328125000022169
 20
62.9882812500006253
 30
0.0
 40
4.0
 41
100.0
 71
1
 72
0
  1
6
  7
normal
 50
0.0
 73
1
 44
1.0
  0
MTEXT
  5
9D
100
AcDbEntity
100
AcDbMText
  8
0-Vertices
 62
256
370
-1
  6
ByLayer
 10
143.0664062500014211
 20
99.1210937500009805
 30
0.0
 40
4.0
 41
100.0
 71
1
 72
0
  1
7
  7
normal
 50
0.0
 73
1
 44
1.0
  0
MTEXT
  5
9E
100
AcDbEntity
100
AcDbMText
  8
0-Vertices
 62
256
370
-1
  6
ByLayer
 10
45.8984375000004547
 20
85.9375000000008527
 30
0.0
 40
4.0
 41
100.0
 71
1
 72
0
  1
8
  7
normal
 50
0.0
 73
1
 44
1.0
  0
MTEXT
  5
9F
100
AcDbEntity
100
AcDbMText
  8
0-Vertices
 62
256
370
-1
  6
ByLayer
 10
134.7656250000013358
 20
155.2734375000015348
 30
0.0
 40
4.0
 41
100.0
 71
1
 72
0
  1
9
  7
normal
 50
0.0
 73
1
 44
1.0
  0
MTEXT
  5
A0
100
AcDbEntity
100
AcDbMText
  8
0-Vertices
 62
256
370
-1
  6
ByLayer
 10
202.1484375000020179
 20
124.5117187500012363
 30
0.0
 40
4.0
 41
100.0
 71
1
 72
0
  1
10
  7
normal
 50
0.0
 73
1
 44
1.0
  0
MTEXT
  5
A1
100
AcDbEntity
100
AcDbMText
  8
1-Vertices
 62
256
370
-1
  6
ByLayer
 10
204.2968750000027569
 20
24.609375000000334
 30
0.0
 40
4.0
 41
100.0
 71
1
 72
0
  1
15
  7
normal
 50
0.0
 73
1
 44
1.0
  0
MTEXT
  5
A2
100
AcDbEntity
100
AcDbMText
  8
1-Vertices
 62
256
370
-1
  6
ByLayer
 10
109.7656250000014779
 20
-41.4062500000005613
 30
0.0
 40
4.0
 41
100.0
 71
1
 72
0
  1
11
  7
normal
 50
0.0
 73
1
 44
1.0
  0
MTEXT
  5
A3
100
AcDbEntity
100
AcDbMText
  8
1-Vertices
 62
256
370
-1
  6
ByLayer
 10
164.8437500000022169
 20
-41.4062500000005613
 30
0.0
 40
4.0
 41
100.0
 71
1
 72
0
  1
12
  7
normal
 50
0.0
 73
1
 44
1.0
  0
MTEXT
  5
A4
100
AcDbEntity
100
AcDbMText
  8
1-Vertices
 62
256
370
-1
  6
ByLayer
 10
134.375000000001819
 20
-16.0156250000002167
 30
0.0
 40
4.0
 41
100.0
 71
1
 72
0
  1
13
  7
normal
 50
0.0
 73
1
 44
1.0
  0
MTEXT
  5
A5
100
AcDbEntity
100
AcDbMText
  8
1-Vertices
 62
256
370
-1
  6
ByLayer
 10
166.7968750000022453
 20
43.7500000000005898
 30
0.0
 40
4.0
 41
100.0
 71
1
 72
0
  1
14
  7
normal
 50
0.0
 73
1
 44
1.0
  0
MTEXT
  5
A6
100
AcDbEntity
100
AcDbMText
  8
1-Vertices
 62
256
370
-1
  6
ByLayer
 10
181.2500000000024443
 20
82.0312500000011084
 30
0.0
 40
4.0
 41
100.0
 71
1
 72
0
  1
16
  7
normal
 50
0.0
 73
1
 44
1.0
  0
MTEXT
  5
A7
100
AcDbEntity
100
AcDbMText
  8
1-Vertices
 62
256
370
-1
  6
ByLayer
 10
62.5000000000008455
 20
36.7187500000004974
 30
0.0
 40
4.0
 41
100.0
 71
1
 72
0
  1
17
  7
normal
 50
0.0
 73
1
 44
1.0
  0
MTEXT
  5
A8
100
AcDbEntity
100
AcDbMText
  8
1-Vertices
 62
256
370
-1
  6
ByLayer
 10
105.8593750000014353
 20
37.1093750000005045
 30
0.0
 40
4.0
 41
100.0
 71
1
 72
0
  1
18
  7
normal
 50
0.0
 73
1
 44
1.0
  0
MTEXT
  5
A9
100
AcDbEntity
100
AcDbMText
  8
1-Vertices
 62
256
370
-1
  6
ByLayer
 10
94.531250000001279
 20
76.1718750000010232
 30
0.0
 40
4.0
 41
100.0
 71
1
 72
0
  1
19
  7
normal
 50
0.0
 73
1
 44
1.0
  0
MTEXT
  5
AA
100
AcDbEntity
100
AcDbMText
  8
2-Vertices
 62
256
370
-1
  6
ByLayer
 10
95.3125000000012932
 20
18.7500000000002522
 30
0.0
 40
4.0
 41
100.0
 71
1
 72
0
  1
20
  7
normal
 50
0.0
 73
1
 44
1.0
  0
MTEXT
  5
AB
100
AcDbEntity
100
AcDbMText
  8
2-Vertices
 62
256
370
-1
  6
ByLayer
 10
109.7656250000014779
 20
-14.0625000000001901
 30
0.0
 40
4.0
 41
100.0
 71
1
 72
0
  1
21
  7
normal
 50
0.0
 73
1
 44
1.0
  0
MTEXT
  5
AC
100
AcDbEntity
100
AcDbMText
  8
2-Vertices
 62
256
370
-1
  6
ByLayer
 10
122.2656250000016485
 20
9.3750000000001261
 30
0.0
 40
4.0
 41
100.0
 71
1
 72
0
  1
22
  7
normal
 50
0.0
 73
1
 44
1.0
  0
MTEXT
  5
AD
100
AcDbEntity
100
AcDbMText
  8
2-Vertices
 62
256
370
-1
  6
ByLayer
 10
150.0000000000020179
 20
13.6718750000001847
 30
0.0
 40
4.0
 41
100.0
 71
1
 72
0
  1
23
  7
normal
 50
0.0
 73
1
 44
1.0
  0
MTEXT
  5
AE
100
AcDbEntity
100
AcDbMText
  8
2-Vertices
 62
256
370
-1
  6
ByLayer
 10
139.4531250000018758
 20
38.6718750000005258
 30
0.0
 40
4.0
 41
100.0
 71
1
 72
0
  1
24
  7
normal
 50
0.0
 73
1
 44
1.0
  0
MTEXT
  5
AF
100
AcDbEntity
100
AcDbMText
  8
2-Vertices
 62
256
370
-1
  6
ByLayer
 10
153.1250000000020748
 20
66.4062500000008953
 30
0.0
 40
4.0
 41
100.0
 71
1
 72
0
  1
25
  7
normal
 50
0.0
 73
1
 44
1.0
  0
MTEXT
  5
B0
100
AcDbEntity
100
AcDbMText
  8
2-Vertices
 62
256
370
-1
  6
ByLayer
 10
130.0781250000017621
 20
63.2812500000008527
 30
0.0
 40
4.0
 41
100.0
 71
1
 72
0
  1
26
  7
normal
 50
0.0
 73
1
 44
1.0
  0
MTEXT
  5
B1
100
AcDbEntity
100
AcDbMText
  8
2-Vertices
 62
256
370
-1
  6
ByLayer
 10
115.2343750000015632
 20
94.531250000001279
 30
0.0
 40
4.0
 41
100.0
 71
1
 72
0
  1
27
  7
normal
 50
0.0
 73
1
 44
1.0
  0
MTEXT
  5
B2
100
AcDbEntity
100
AcDbMText
  8
2-Vertices
 62
256
370
-1
  6
ByLayer
 10
98.0468750000013216
 20
60.9375000000008242
 30
0.0
 40
4.0
 41
100.0
 71
1
 72
0
  1
28
  7
normal
 50
0.0
 73
1
 44
1.0
  0
MTEXT
  5
B3
100
AcDbEntity
100
AcDbMText
  8
0-Triangles
 62
256
370
-1
  6
ByLayer
 10
50.6591796875007105
 20
-23.1933593750003268
 30
0.0
 40
4.0
 41
100.0
 71
1
 72
0
  1
0
  7
italicc
 50
0.0
 73
1
 44
1.0
  0
MTEXT
  5
B4
100
AcDbEntity
100
AcDbMText
  8
0-Triangles
 62
256
370
-1
  6
ByLayer
 10
96.43554687500135
 20
-45.1660156250006324
 30
0.0
 40
4.0
 41
100.0
 71
1
 72
0
  1
1
  7
italicc
 50
0.0
 73
1
 44
1.0
  0
MTEXT
  5
B5
100
AcDbEntity
100
AcDbMText
  8
0-Triangles
 62
256
370
-1
  6
ByLayer
 10
137.3291015625019327
 20
-34.7900390625004903
 30
0.0
 40
4.0
 41
100.0
 71
1
 72
0
  1
2
  7
italicc
 50
0.0
 73
1
 44
1.0
  0
MTEXT
  5
B6
100
AcDbEntity
100
AcDbMText
  8
0-Triangles
 62
256
370
-1
  6
ByLayer
 10
184.9365234375025864
 20
-43.9453125000006182
 30
0.0
 40
4.0
 41
100.0
 71
1
 72
0
  1
3
  7
italicc
 50
0.0
 73
1
 44
1.0
  0
MTEXT
  5
B7
100
AcDbEntity
100
AcDbMText
  8
0-Triangles
 62
256
370
-1
  6
ByLayer
 10
209.3505859375029274
 20
-0.6103515625000085
 30
0.0
 40
4.0
 41
100.0
 71
1
 72
0
  1
4
  7
italicc
 50
0.0
 73
1
 44
1.0
  0
MTEXT
  5
B8
100
AcDbEntity
100
AcDbMText
  8
0-Triangles
 62
256
370
-1
  6
ByLayer
 10
183.7158203125025864
 20
43.9453125000006182
 30
0.0
 40
4.0
 41
100.0
 71
1
 72
0
  1
5
  7
italicc
 50
0.0
 73
1
 44
1.0
  0
MTEXT
  5
B9
100
AcDbEntity
100
AcDbMText
  8
0-Triangles
 62
256
370
-1
  6
ByLayer
 10
192.2607421875027001
 20
94.6044921875013358
 30
0.0
 40
4.0
 41
100.0
 71
1
 72
0
  1
6
  7
italicc
 50
0.0
 73
1
 44
1.0
  0
MTEXT
  5
BA
100
AcDbEntity
100
AcDbMText
  8
0-Triangles
 62
256
370
-1
  6
ByLayer
 10
153.80859375000216
 20
117.7978515625016485
 30
0.0
 40
4.0
 41
100.0
 71
1
 72
0
  1
7
  7
italicc
 50
0.0
 73
1
 44
1.0
  0
MTEXT
  5
BB
100
AcDbEntity
100
AcDbMText
  8
0-Triangles
 62
256
370
-1
  6
ByLayer
 10
107.4218750000015064
 20
106.2011718750014921
 30
0.0
 40
4.0
 41
100.0
 71
1
 72
0
  1
8
  7
italicc
 50
0.0
 73
1
 44
1.0
  0
MTEXT
  5
BC
100
AcDbEntity
100
AcDbMText
  8
0-Triangles
 62
256
370
-1
  6
ByLayer
 10
93.9941406250013216
 20
51.8798828125007319
 30
0.0
 40
4.0
 41
100.0
 71
1
 72
0
  1
9
  7
italicc
 50
0.0
 73
1
 44
1.0
  0
MTEXT
  5
BD
100
AcDbEntity
100
AcDbMText
  8
0-Triangles
 62
256
370
-1
  6
ByLayer
 10
48.217773437500675
 20
19.5312500000002736
 30
0.0
 40
4.0
 41
100.0
 71
1
 72
0
  1
10
  7
italicc
 50
0.0
 73
1
 44
1.0
  0
MTEXT
  5
BE
100
AcDbEntity
100
AcDbMText
  8
0-Triangles
 62
256
370
-1
  6
ByLayer
 10
140.3808593750019611
 20
20.1416015625002842
 30
0.0
 40
4.0
 41
100.0
 71
1
 72
0
  1
11
  7
italicc
 50
0.0
 73
1
 44
1.0
  0
MTEXT
  5
BF
100
AcDbEntity
100
AcDbMText
  8
1-Triangles
 62
256
370
-1
  6
ByLayer
 10
112.1093750000016058
 20
-20.7031250000002984
 30
0.0
 40
4.0
 41
100.0
 71
1
 72
0
  1
12
  7
italicc
 50
0.0
 73
1
 44
1.0
  0
MTEXT
  5
C0
100
AcDbEntity
100
AcDbMText
  8
1-Triangles
 62
256
370
-1
  6
ByLayer
 10
137.5000000000019895
 20
-48.8281250000007034
 30
0.0
 40
4.0
 41
100.0
 71
1
 72
0
  1
13
  7
italicc
 50
0.0
 73
1
 44
1.0
  0
MTEXT
  5
C1
100
AcDbEntity
100
AcDbMText
  8
1-Triangles
 62
256
370
-1
  6
ByLayer
 10
158.2031250000022737
 20
-18.75000000000027
 30
0.0
 40
4.0
 41
100.0
 71
1
 72
0
  1
14
  7
italicc
 50
0.0
 73
1
 44
1.0
  0
MTEXT
  5
C2
100
AcDbEntity
100
AcDbMText
  8
1-Triangles
 62
256
370
-1
  6
ByLayer
 10
135.5468750000019611
 20
-27.3437500000003944
 30
0.0
 40
4.0
 41
100.0
 71
1
 72
0
  1
15
  7
italicc
 50
0.0
 73
1
 44
1.0
  0
MTEXT
  5
C3
100
AcDbEntity
100
AcDbMText
  8
1-Triangles
 62
256
370
-1
  6
ByLayer
 10
178.515625000002558
 20
20.3125000000002913
 30
0.0
 40
4.0
 41
100.0
 71
1
 72
0
  1
16
  7
italicc
 50
0.0
 73
1
 44
1.0
  0
MTEXT
  5
C4
100
AcDbEntity
100
AcDbMText
  8
1-Triangles
 62
256
370
-1
  6
ByLayer
 10
200.781250000002899
 20
55.4687500000007958
 30
0.0
 40
4.0
 41
100.0
 71
1
 72
0
  1
17
  7
italicc
 50
0.0
 73
1
 44
1.0
  0
MTEXT
  5
C5
100
AcDbEntity
100
AcDbMText
  8
1-Triangles
 62
256
370
-1
  6
ByLayer
 10
160.5468750000023022
 20
70.312500000001009
 30
0.0
 40
4.0
 41
100.0
 71
1
 72
0
  1
18
  7
italicc
 50
0.0
 73
1
 44
1.0
  0
MTEXT
  5
C6
100
AcDbEntity
100
AcDbMText
  8
1-Triangles
 62
256
370
-1
  6
ByLayer
 10
178.515625000002558
 20
49.6093750000007105
 30
0.0
 40
4.0
 41
100.0
 71
1
 72
0
  1
19
  7
italicc
 50
0.0
 73
1
 44
1.0
  0
MTEXT
  5
C7
100
AcDbEntity
100
AcDbMText
  8
1-Triangles
 62
256
370
-1
  6
ByLayer
 10
136.3281250000019611
 20
53.9062500000007745
 30
0.0
 40
4.0
 41
100.0
 71
1
 72
0
  1
20
  7
italicc
 50
0.0
 73
1
 44
1.0
  0
MTEXT
  5
C8
100
AcDbEntity
100
AcDbMText
  8
1-Triangles
 62
256
370
-1
  6
ByLayer
 10
111.3281250000016058
 20
13.2812500000001901
 30
0.0
 40
4.0
 41
100.0
 71
1
 72
0
  1
21
  7
italicc
 50
0.0
 73
1
 44
1.0
  0
MTEXT
  5
C9
100
AcDbEntity
100
AcDbMText
  8
1-Triangles
 62
256
370
-1
  6
ByLayer
 10
156.6406250000022453
 20
7.8125000000001119
 30
0.0
 40
4.0
 41
100.0
 71
1
 72
0
  1
22
  7
italicc
 50
0.0
 73
1
 44
1.0
  0
MTEXT
  5
CA
100
AcDbEntity
100
AcDbMText
  8
1-Triangles
 62
256
370
-1
  6
ByLayer
 10
134.3750000000019327
 20
21.093750000000302
 30
0.0
 40
4.0
 41
100.0
 71
1
 72
0
  1
23
  7
italicc
 50
0.0
 73
1
 44
1.0
  0
MTEXT
  5
CB
100
AcDbEntity
100
AcDbMText
  8
1-Triangles
 62
256
370
-1
  6
ByLayer
 10
88.2812500000012648
 20
26.9531250000003872
 30
0.0
 40
4.0
 41
100.0
 71
1
 72
0
  1
24
  7
italicc
 50
0.0
 73
1
 44
1.0
  0
MTEXT
  5
CC
100
AcDbEntity
100
AcDbMText
  8
1-Triangles
 62
256
370
-1
  6
ByLayer
 10
118.3593750000017053
 20
71.0937500000010232
 30
0.0
 40
4.0
 41
100.0
 71
1
 72
0
  1
25
  7
italicc
 50
0.0
 73
1
 44
1.0
  0
MTEXT
  5
CD
100
AcDbEntity
100
AcDbMText
  8
1-Triangles
 62
256
370
-1
  6
ByLayer
 10
66.7968750000009663
 20
70.7031250000010232
 30
0.0
 40
4.0
 41
100.0
 71
1
 72
0
  1
26
  7
italicc
 50
0.0
 73
1
 44
1.0
  0
MTEXT
  5
CE
100
AcDbEntity
100
AcDbMText
  8
1-Triangles
 62
256
370
-1
  6
ByLayer
 10
89.4531250000012932
 20
55.8593750000008029
 30
0.0
 40
4.0
 41
100.0
 71
1
 72
0
  1
27
  7
italicc
 50
0.0
 73
1
 44
1.0
  0
MTEXT
  5
CF
100
AcDbEntity
100
AcDbMText
  8
2-Triangles
 62
256
370
-1
  6
ByLayer
 10
99.5000000000015774
 20
1.7500000000000278
 30
0.0
 40
4.0
 41
100.0
 71
1
 72
0
  1
28
  7
italicc
 50
0.0
 73
1
 44
1.0
  0
MTEXT
  5
D0
100
AcDbEntity
100
AcDbMText
  8
2-Triangles
 62
256
370
-1
  6
ByLayer
 10
122.7500000000019469
 20
1.2500000000000198
 30
0.0
 40
4.0
 41
100.0
 71
1
 72
0
  1
29
  7
italicc
 50
0.0
 73
1
 44
1.0
  0
MTEXT
  5
D1
100
AcDbEntity
100
AcDbMText
  8
2-Triangles
 62
256
370
-1
  6
ByLayer
 10
111.0000000000017621
 20
25.500000000000405
 30
0.0
 40
4.0
 41
100.0
 71
1
 72
0
  1
30
  7
italicc
 50
0.0
 73
1
 44
1.0
  0
MTEXT
  5
D2
100
AcDbEntity
100
AcDbMText
  8
2-Triangles
 62
256
370
-1
  6
ByLayer
 10
110.7500000000017621
 20
8.2500000000001315
 30
0.0
 40
4.0
 41
100.0
 71
1
 72
0
  1
31
  7
italicc
 50
0.0
 73
1
 44
1.0
  0
MTEXT
  5
D3
100
AcDbEntity
100
AcDbMText
  8
2-Triangles
 62
256
370
-1
  6
ByLayer
 10
133.2500000000021032
 20
9.7500000000001545
 30
0.0
 40
4.0
 41
100.0
 71
1
 72
0
  1
32
  7
italicc
 50
0.0
 73
1
 44
1.0
  0
MTEXT
  5
D4
100
AcDbEntity
100
AcDbMText
  8
2-Triangles
 62
256
370
-1
  6
ByLayer
 10
145.5000000000023022
 20
33.0000000000005258
 30
0.0
 40
4.0
 41
100.0
 71
1
 72
0
  1
33
  7
italicc
 50
0.0
 73
1
 44
1.0
  0
MTEXT
  5
D5
100
AcDbEntity
100
AcDbMText
  8
2-Triangles
 62
256
370
-1
  6
ByLayer
 10
123.7500000000019611
 20
35.7500000000005684
 30
0.0
 40
4.0
 41
100.0
 71
1
 72
0
  1
34
  7
italicc
 50
0.0
 73
1
 44
1.0
  0
MTEXT
  5
D6
100
AcDbEntity
100
AcDbMText
  8
2-Triangles
 62
256
370
-1
  6
ByLayer
 10
134.5000000000021316
 20
27.7500000000004405
 30
0.0
 40
4.0
 41
100.0
 71
1
 72
0
  1
35
  7
italicc
 50
0.0
 73
1
 44
1.0
  0
MTEXT
  5
D7
100
AcDbEntity
100
AcDbMText
  8
2-Triangles
 62
256
370
-1
  6
ByLayer
 10
123.2500000000019611
 20
51.2500000000008171
 30
0.0
 40
4.0
 41
100.0
 71
1
 72
0
  1
36
  7
italicc
 50
0.0
 73
1
 44
1.0
  0
MTEXT
  5
D8
100
AcDbEntity
100
AcDbMText
  8
2-Triangles
 62
256
370
-1
  6
ByLayer
 10
147.2500000000023306
 20
51.2500000000008171
 30
0.0
 40
4.0
 41
100.0
 71
1
 72
0
  1
37
  7
italicc
 50
0.0
 73
1
 44
1.0
  0
MTEXT
  5
D9
100
AcDbEntity
100
AcDbMText
  8
2-Triangles
 62
256
370
-1
  6
ByLayer
 10
137.5000000000021885
 20
74.7500000000011937
 30
0.0
 40
4.0
 41
100.0
 71
1
 72
0
  1
38
  7
italicc
 50
0.0
 73
1
 44
1.0
  0
MTEXT
  5
DA
100
AcDbEntity
100
AcDbMText
  8
2-Triangles
 62
256
370
-1
  6
ByLayer
 10
136.00000000000216
 20
58.0000000000009237
 30
0.0
 40
4.0
 41
100.0
 71
1
 72
0
  1
39
  7
italicc
 50
0.0
 73
1
 44
1.0
  0
MTEXT
  5
DB
100
AcDbEntity
100
AcDbMText
  8
2-Triangles
 62
256
370
-1
  6
ByLayer
 10
113.0000000000017906
 20
60.0000000000009521
 30
0.0
 40
4.0
 41
100.0
 71
1
 72
0
  1
40
  7
italicc
 50
0.0
 73
1
 44
1.0
  0
MTEXT
  5
DC
100
AcDbEntity
100
AcDbMText
  8
2-Triangles
 62
256
370
-1
  6
ByLayer
 10
126.0000000000020037
 20
84.2500000000013358
 30
0.0
 40
4.0
 41
100.0
 71
1
 72
0
  1
41
  7
italicc
 50
0.0
 73
1
 44
1.0
  0
MTEXT
  5
DD
100
AcDbEntity
100
AcDbMText
  8
2-Triangles
 62
256
370
-1
  6
ByLayer
 10
104.5000000000016627
 20
81.7500000000012932
 30
0.0
 40
4.0
 41
100.0
 71
1
 72
0
  1
42
  7
italicc
 50
0.0
 73
1
 44
1.0
  0
MTEXT
  5
DE
100
AcDbEntity
100
AcDbMText
  8
2-Triangles
 62
256
370
-1
  6
ByLayer
 10
114.500000000001819
 20
75.5000000000011937
 30
0.0
 40
4.0
 41
100.0
 71
1
 72
0
  1
43
  7
italicc
 50
0.0
 73
1
 44
1.0
  0
ENDSEC
  0
SECTION
  2
OBJECTS
  0
DICTIONARY
  5
C
100
AcDbDictionary
280
0
281
1
  3
ACAD_GROUP
350
D
  3
ACAD_LAYOUT
350
1A
  3
ACAD_MLINESTYLE
350
17
  3
ACAD_PLOTSETTINGS
350
19
  3
ACAD_PLOTSTYLENAME
350
E
  3
AcDbVariableDictionary
350
DF
  0
DICTIONARY
  5
D
100
AcDbDictionary
280
0
281
1
  0
ACDBDICTIONARYWDFLT
  5
E
100
AcDbDictionary
281
1
  3
Normal
350
F
100
AcDbDictionaryWithDefault
340
F
  0
ACDBPLACEHOLDER
  5
F
  0
DICTIONARY
  5
17
100
AcDbDictionary
280
0
281
1
  3
Standard
350
18
  0
MLINESTYLE
  5
18
100
AcDbMlineStyle
  2
STANDARD
 70
0
  3

 62
256
 51
90.0
 52
90.0
 71
2
 49
0.5
 62
256
  6
BYLAYER
 49
-0.5
 62
256
  6
BYLAYER
  0
DICTIONARY
  5
19
100
AcDbDictionary
280
0
281
1
  0
DICTIONARY
  5
1A
100
AcDbDictionary
281
1
  3
Layout1
350
1E
  3
Layout2
350
26
  3
Model
350
22
  0
LAYOUT
  5
1E
100
AcDbPlotSettings
  1

  2
C:\Program Files\AutoCAD 2002\plotters\DWF ePlot (optimized for plotting).pc3
  4

  6

 40
0.0
 41
0.0
 42
0.0
 43
0.0
 44
0.0
 45
0.0
 46
0.0
 47
0.0
 48
0.0
 49
0.0
140
0.0
141
0.0
142
1.0
143
1.0
 70
688
 72
0
 73
0
 74
5
  7

 75
16
147
1.0
148
0.0
149
0.0
100
AcDbLayout
  1
Layout1
 70
1
 71
1
 10
0.0
 20
0.0
 11
420.0
 21
297.0
 12
0.0
 22
0.0
 32
0.0
 14
100000000000000000000.0
 24
100000000000000000000.0
 34
100000000000000000000.0
 15
-100000000000000000000.0
 25
-100000000000000000000.0
 35
-100000000000000000000.0
146
0.0
 13
0.0
 23
0.0
 33
0.0
 16
1.0
 26
0.0
 36
0.0
 17
0.0
 27
1.0
 37
0.0
 76
0
330
1B
  0
LAYOUT
  5
22
100
AcDbPlotSettings
  1

  2
C:\Program Files\AutoCAD 2002\plotters\DWF ePlot (optimized for plotting).pc3
  4

  6

 40
0.0
 41
0.0
 42
0.0
 43
0.0
 44
0.0
 45
0.0
 46
0.0
 47
0.0
 48
0.0
 49
0.0
140
0.0
141
0.0
142
1.0
143
1.0
 70
1712
 72
0
 73
0
 74
0
  7

 75
0
147
1.0
148
0.0
149
0.0
100
AcDbLayout
  1
Model
 70
1
 71
0
 10
0.0
 20
0.0
 11
12.0
 21
9.0
 12
0.0
 22
0.0
 32
0.0
 14
0.0
 24
0.0
 34
0.0
 15
0.0
 25
0.0
 35
0.0
146
0.0
 13
0.0
 23
0.0
 33
0.0
 16
1.0
 26
0.0
 36
0.0
 17
0.0
 27
1.0
 37
0.0
 76
0
330
1F
  0
LAYOUT
  5
26
100
AcDbPlotSettings
  1

  2
C:\Program Files\AutoCAD 2002\plotters\DWF ePlot (optimized for plotting).pc3
  4

  6

 40
0.0
 41
0.0
 42
0.0
 43
0.0
 44
0.0
 45
0.0
 46
0.0
 47
0.0
 48
0.0
 49
0.0
140
0.0
141
0.0
142
1.0
143
1.0
 70
688
 72
0
 73
0
 74
5
  7

 75
16
147
1.0
148
0.0
149
0.0
100
AcDbLayout
  1
Layout2
 70
1
 71
2
 10
0.0
 20
0.0
 11
12.0
 21
9.0
 12
0.0
 22
0.0
 32
0.0
 14
0.0
 24
0.0
 34
0.0
 15
0.0
 25
0.0
 35
0.0
146
0.0
 13
0.0
 23
0.0
 33
0.0
 16
1.0
 26
0.0
 36
0.0
 17
0.0
 27
1.0
 37
0.0
 76
0
330
23
  0
DICTIONARY
  5
DF
100
AcDbDictionary
281
1
  3
DIMASSOC
350
E1
  3
HIDETEXT
350
E0
  0
DICTIONARYVAR
  5
E0
100
DictionaryVariables
280
0
  1
2
  0
DICTIONARYVAR
  5
E1
100
DictionaryVariables
280
0
  1
1
  0
ENDSEC
  0
EOF
