999
dxflib 2.2.0.0
  0
SECTION
  2
HEADER
  9
$ACADVER
  1
AC1015
  9
$HANDSEED
  5
FFFF
  9
$DIMASZ
 40
2.5
  9
$PLIMMIN
 10
0.0
 20
0.0
  9
$DIMEXE
 40
1.25
  9
$DIMGAP
 40
0.625
  9
$PLIMMAX
 10
210.0
 20
297.0
  9
$PSVPSCALE
 40
0.7295160000000001
  9
$PINSBASE
 10
16.6994766976620639
 20
117.2065161928293264
 30
0.0
  9
$INSUNITS
 70
4
  9
$DIMSTYLE
  2
Standard
  9
$CLAYER
  8
1-UGrid Mark Neighbors
  9
$DIMEXO
 40
0.625
  9
$DIMTXT
 40
2.5
  9
$CLAYER
  8
1-UGrid Mark DownAdjVertices
  0
ENDSEC
  0
SECTION
  2
TABLES
  0
TABLE
  2
VPORT
  5
8
100
AcDbSymbolTable
 70
1
  0
VPORT
  5
30
100
AcDbSymbolTableRecord
100
AcDbViewportTableRecord
  2
*Active
 70
0
 10
0.0
 20
0.0
 11
1.0
 21
1.0
 12
286.3055555555554861
 22
148.5
 13
0.0
 23
0.0
 14
10.0
 24
10.0
 15
10.0
 25
10.0
 16
0.0
 26
0.0
 36
1.0
 17
0.0
 27
0.0
 37
0.0
 40
297.0
 41
1.92798353909465
 42
50.0
 43
0.0
 44
0.0
 50
0.0
 51
0.0
 71
0
 72
100
 73
1
 74
3
 75
1
 76
1
 77
0
 78
0
281
0
 65
1
110
0.0
120
0.0
130
0.0
111
1.0
121
0.0
131
0.0
112
0.0
122
1.0
132
0.0
 79
0
146
0.0
  0
ENDTAB
  0
TABLE
  2
LTYPE
  5
5
100
AcDbSymbolTable
 70
21
  0
LTYPE
  5
14
100
AcDbSymbolTableRecord
100
AcDbLinetypeTableRecord
  2
ByBlock
 70
0
  3

 72
65
 73
0
 40
0.0
  0
LTYPE
  5
15
100
AcDbSymbolTableRecord
100
AcDbLinetypeTableRecord
  2
ByLayer
 70
0
  3

 72
65
 73
0
 40
0.0
  0
LTYPE
  5
16
100
AcDbSymbolTableRecord
100
AcDbLinetypeTableRecord
  2
CONTINUOUS
 70
0
  3
Solid line
 72
65
 73
0
 40
0.0
  0
LTYPE
  5
31
100
AcDbSymbolTableRecord
100
AcDbLinetypeTableRecord
  2
DOT
 70
0
  3
Dot . . . . . . . . . . . . . . . . . . . . . .
 72
65
 73
2
 40
6.3499999999999996
 49
0.0
 74
0
 49
-6.3499999999999996
 74
0
  0
LTYPE
  5
32
100
AcDbSymbolTableRecord
100
AcDbLinetypeTableRecord
  2
DOT2
 70
0
  3
Dot (.5x) .....................................
 72
65
 73
2
 40
3.1749999999999998
 49
0.0
 74
0
 49
-3.1749999999999998
 74
0
  0
LTYPE
  5
33
100
AcDbSymbolTableRecord
100
AcDbLinetypeTableRecord
  2
DOTX2
 70
0
  3
Dot (2x) .  .  .  .  .  .  .  .  .  .  .  .  .
 72
65
 73
2
 40
12.6999999999999993
 49
0.0
 74
0
 49
-12.6999999999999993
 74
0
  0
LTYPE
  5
34
100
AcDbSymbolTableRecord
100
AcDbLinetypeTableRecord
  2
DASHED
 70
0
  3
Dashed __ __ __ __ __ __ __ __ __ __ __ __ __ _
 72
65
 73
2
 40
19.0500000000000007
 49
12.6999999999999993
 74
0
 49
-6.3499999999999996
 74
0
  0
LTYPE
  5
35
100
AcDbSymbolTableRecord
100
AcDbLinetypeTableRecord
  2
DASHED2
 70
0
  3
Dashed (.5x) _ _ _ _ _ _ _ _ _ _ _ _ _ _ _ _ _
 72
65
 73
2
 40
9.5250000000000004
 49
6.3499999999999996
 74
0
 49
-3.1749999999999998
 74
0
  0
LTYPE
  5
36
100
AcDbSymbolTableRecord
100
AcDbLinetypeTableRecord
  2
DASHEDX2
 70
0
  3
Dashed (2x) ____  ____  ____  ____  ____  ___
 72
65
 73
2
 40
38.1000000000000014
 49
25.3999999999999986
 74
0
 49
-12.6999999999999993
 74
0
  0
LTYPE
  5
37
100
AcDbSymbolTableRecord
100
AcDbLinetypeTableRecord
  2
DASHDOT
 70
0
  3
Dash dot __ . __ . __ . __ . __ . __ . __ . __
 72
65
 73
4
 40
25.3999999999999986
 49
12.6999999999999993
 74
0
 49
-6.3499999999999996
 74
0
 49
0.0
 74
0
 49
-6.3499999999999996
 74
0
  0
LTYPE
  5
38
100
AcDbSymbolTableRecord
100
AcDbLinetypeTableRecord
  2
DASHDOT2
 70
0
  3
Dash dot (.5x) _._._._._._._._._._._._._._._.
 72
65
 73
4
 40
12.6999999999999993
 49
6.3499999999999996
 74
0
 49
-3.1749999999999998
 74
0
 49
0.0
 74
0
 49
-3.1749999999999998
 74
0
  0
LTYPE
  5
39
100
AcDbSymbolTableRecord
100
AcDbLinetypeTableRecord
  2
DASHDOTX2
 70
0
  3
Dash dot (2x) ____  .  ____  .  ____  .  ___
 72
65
 73
4
 40
50.7999999999999972
 49
25.3999999999999986
 74
0
 49
-12.6999999999999993
 74
0
 49
0.0
 74
0
 49
-12.6999999999999993
 74
0
  0
LTYPE
  5
3A
100
AcDbSymbolTableRecord
100
AcDbLinetypeTableRecord
  2
DIVIDE
 70
0
  3
Divide ____ . . ____ . . ____ . . ____ . . ____
 72
65
 73
6
 40
31.75
 49
12.6999999999999993
 74
0
 49
-6.3499999999999996
 74
0
 49
0.0
 74
0
 49
-6.3499999999999996
 74
0
 49
0.0
 74
0
 49
-6.3499999999999996
 74
0
  0
LTYPE
  5
3B
100
AcDbSymbolTableRecord
100
AcDbLinetypeTableRecord
  2
DIVIDE2
 70
0
  3
Divide (.5x) __..__..__..__..__..__..__..__.._
 72
65
 73
6
 40
15.875
 49
6.3499999999999996
 74
0
 49
-3.1749999999999998
 74
0
 49
0.0
 74
0
 49
-3.1749999999999998
 74
0
 49
0.0
 74
0
 49
-3.1749999999999998
 74
0
  0
LTYPE
  5
3C
100
AcDbSymbolTableRecord
100
AcDbLinetypeTableRecord
  2
DIVIDEX2
 70
0
  3
Divide (2x) ________  .  .  ________  .  .  _
 72
65
 73
6
 40
63.5
 49
25.3999999999999986
 74
0
 49
-12.6999999999999993
 74
0
 49
0.0
 74
0
 49
-12.6999999999999993
 74
0
 49
0.0
 74
0
 49
-12.6999999999999993
 74
0
  0
LTYPE
  5
3D
100
AcDbSymbolTableRecord
100
AcDbLinetypeTableRecord
  2
CENTER
 70
0
  3
Center ____ _ ____ _ ____ _ ____ _ ____ _ ____
 72
65
 73
4
 40
50.7999999999999972
 49
31.75
 74
0
 49
-6.3499999999999996
 74
0
 49
6.3499999999999996
 74
0
 49
-6.3499999999999996
 74
0
  0
LTYPE
  5
3E
100
AcDbSymbolTableRecord
100
AcDbLinetypeTableRecord
  2
CENTER2
 70
0
  3
Center (.5x) ___ _ ___ _ ___ _ ___ _ ___ _ ___
 72
65
 73
4
 40
28.5749999999999993
 49
19.0500000000000007
 74
0
 49
-3.1749999999999998
 74
0
 49
3.1749999999999998
 74
0
 49
-3.1749999999999998
 74
0
  0
LTYPE
  5
3F
100
AcDbSymbolTableRecord
100
AcDbLinetypeTableRecord
  2
CENTERX2
 70
0
  3
Center (2x) ________  __  ________  __  _____
 72
65
 73
4
 40
101.5999999999999943
 49
63.5
 74
0
 49
-12.6999999999999993
 74
0
 49
12.6999999999999993
 74
0
 49
-12.6999999999999993
 74
0
  0
LTYPE
  5
40
100
AcDbSymbolTableRecord
100
AcDbLinetypeTableRecord
  2
BORDER
 70
0
  3
Border __ __ . __ __ . __ __ . __ __ . __ __ .
 72
65
 73
6
 40
44.4500000000000028
 49
12.6999999999999993
 74
0
 49
-6.3499999999999996
 74
0
 49
12.6999999999999993
 74
0
 49
-6.3499999999999996
 74
0
 49
0.0
 74
0
 49
-6.3499999999999996
 74
0
  0
LTYPE
  5
41
100
AcDbSymbolTableRecord
100
AcDbLinetypeTableRecord
  2
BORDER2
 70
0
  3
Border (.5x) __.__.__.__.__.__.__.__.__.__.__.
 72
65
 73
6
 40
22.2250000000000014
 49
6.3499999999999996
 74
0
 49
-3.1749999999999998
 74
0
 49
6.3499999999999996
 74
0
 49
-3.1749999999999998
 74
0
 49
0.0
 74
0
 49
-3.1749999999999998
 74
0
  0
LTYPE
  5
42
100
AcDbSymbolTableRecord
100
AcDbLinetypeTableRecord
  2
BORDERX2
 70
0
  3
Border (2x) ____  ____  .  ____  ____  .  ___
 72
65
 73
6
 40
88.9000000000000057
 49
25.3999999999999986
 74
0
 49
-12.6999999999999993
 74
0
 49
25.3999999999999986
 74
0
 49
-12.6999999999999993
 74
0
 49
0.0
 74
0
 49
-12.6999999999999993
 74
0
  0
ENDTAB
  0
TABLE
  2
LAYER
  5
2
100
AcDbSymbolTable
 70
125
  0
LAYER
  5
10
100
AcDbSymbolTableRecord
100
AcDbLayerTableRecord
  2
0
 70
0
 62
7
420
0
  6
CONTINUOUS
370
70
390
F
  0
LAYER
  5
43
100
AcDbSymbolTableRecord
100
AcDbLayerTableRecord
  2
1-UGrid New Triangles
 70
1
 62
-1
420
16711680
  6
CONTINUOUS
370
50
390
F
  0
LAYER
  5
44
100
AcDbSymbolTableRecord
100
AcDbLayerTableRecord
  2
2
 70
1
 62
-3
420
65280
  6
CONTINUOUS
370
50
390
F
  0
LAYER
  5
45
100
AcDbSymbolTableRecord
100
AcDbLayerTableRecord
  2
0-UGrid Vertex Idx
 70
1
 62
-7
420
0
  6
CONTINUOUS
370
35
390
F
  0
LAYER
  5
46
100
AcDbSymbolTableRecord
100
AcDbLayerTableRecord
  2
1-UGrid New Vertex Idx
 70
1
 62
-1
420
16711680
  6
CONTINUOUS
370
35
390
F
  0
LAYER
  5
47
100
AcDbSymbolTableRecord
100
AcDbLayerTableRecord
  2
2-Vertices
 70
1
 62
-3
420
65280
  6
CONTINUOUS
370
35
390
F
  0
LAYER
  5
48
100
AcDbSymbolTableRecord
100
AcDbLayerTableRecord
  2
0-UGrid Triangle IDs
 70
1
 62
-7
420
0
  6
CONTINUOUS
370
35
390
F
  0
LAYER
  5
49
100
AcDbSymbolTableRecord
100
AcDbLayerTableRecord
  2
1-UGrid New Triangle IDs
 70
1
 62
-1
420
16711680
  6
CONTINUOUS
370
35
390
F
  0
LAYER
  5
4A
100
AcDbSymbolTableRecord
100
AcDbLayerTableRecord
  2
2-Triangles
 70
1
 62
-3
420
65280
  6
CONTINUOUS
370
0
390
F
  0
LAYER
  5
4B
100
AcDbSymbolTableRecord
100
AcDbLayerTableRecord
  2
1-UGrid Triangle Idx
 70
1
 62
-7
420
0
  6
CONTINUOUS
370
35
390
F
  0
LAYER
  5
4C
100
AcDbSymbolTableRecord
100
AcDbLayerTableRecord
  2
0-UGrid Edge Idx
 70
1
 62
-8
420
8421504
  6
CONTINUOUS
370
35
390
F
  0
LAYER
  5
4D
100
AcDbSymbolTableRecord
100
AcDbLayerTableRecord
  2
1-UGrid Edge Idx
 70
1
 62
-6
420
16711935
  6
CONTINUOUS
370
35
390
F
  0
LAYER
  5
4E
100
AcDbSymbolTableRecord
100
AcDbLayerTableRecord
  2
1-DGraph
 70
1
 62
-8
420
8421504
  6
CONTINUOUS
370
50
390
F
  0
LAYER
  5
4F
100
AcDbSymbolTableRecord
100
AcDbLayerTableRecord
  2
1-UGrid DG Part1
 70
1
 62
-91
420
7405424
  6
CONTINUOUS
370
25
390
F
  0
LAYER
  5
50
100
AcDbSymbolTableRecord
100
AcDbLayerTableRecord
  2
1-UGrid DG Part2
 70
1
 62
-150
420
39423
  6
CONTINUOUS
370
25
390
F
  0
LAYER
  5
51
100
AcDbSymbolTableRecord
100
AcDbLayerTableRecord
  2
1-UGrid
 70
0
 62
7
420
0
  6
CONTINUOUS
370
100
390
F
  0
LAYER
  5
52
100
AcDbSymbolTableRecord
100
AcDbLayerTableRecord
  2
1-NGraph
 70
1
 62
-7
420
0
  6
CONTINUOUS
370
140
390
F
  0
LAYER
  5
53
100
AcDbSymbolTableRecord
100
AcDbLayerTableRecord
  2
1-NGraph Vertex Idx
 70
1
 62
-7
420
0
  6
CONTINUOUS
370
35
390
F
  0
LAYER
  5
54
100
AcDbSymbolTableRecord
100
AcDbLayerTableRecord
  2
1-NGraph Part 1
 70
1
 62
-91
420
7405424
  6
CONTINUOUS
370
0
390
F
  0
LAYER
  5
55
100
AcDbSymbolTableRecord
100
AcDbLayerTableRecord
  2
1-NGraph Part 2
 70
1
 62
-150
420
3769599
  6
CONTINUOUS
370
0
390
F
  0
LAYER
  5
56
100
AcDbSymbolTableRecord
100
AcDbLayerTableRecord
  2
1-DGraph Vertex Idx
 70
1
 62
-7
420
0
  6
CONTINUOUS
370
35
390
F
  0
LAYER
  5
57
100
AcDbSymbolTableRecord
100
AcDbLayerTableRecord
  2
1-DGraph Part1
 70
1
 62
-91
420
7405424
  6
CONTINUOUS
370
0
390
F
  0
LAYER
  5
58
100
AcDbSymbolTableRecord
100
AcDbLayerTableRecord
  2
1-DGraph Part2
 70
1
 62
-150
420
3769599
  6
CONTINUOUS
370
0
390
F
  0
LAYER
  5
59
100
AcDbSymbolTableRecord
100
AcDbLayerTableRecord
  2
1-UGrid Triangle IDs
 70
1
 62
-7
420
0
  6
CONTINUOUS
370
35
390
F
  0
LAYER
  5
5A
100
AcDbSymbolTableRecord
100
AcDbLayerTableRecord
  2
1-UGrid Vertex Idx
 70
0
 62
7
420
0
  6
CONTINUOUS
370
35
390
F
  0
LAYER
  5
5B
100
AcDbSymbolTableRecord
100
AcDbLayerTableRecord
  2
0-UGrid
 70
1
 62
-7
420
0
  6
CONTINUOUS
370
100
390
F
  0
LAYER
  5
5C
100
AcDbSymbolTableRecord
100
AcDbLayerTableRecord
  2
0-UGrid Triangle Idx
 70
1
 62
-7
420
0
  6
CONTINUOUS
370
35
390
F
  0
LAYER
  5
5D
100
AcDbSymbolTableRecord
100
AcDbLayerTableRecord
  2
0-DGraph
 70
1
 62
-8
420
8421504
  6
CONTINUOUS
370
25
390
F
  0
LAYER
  5
5E
100
AcDbSymbolTableRecord
100
AcDbLayerTableRecord
  2
0-DGraph Vertex Idx
 70
1
 62
-7
420
0
  6
CONTINUOUS
370
35
390
F
  0
LAYER
  5
5F
100
AcDbSymbolTableRecord
100
AcDbLayerTableRecord
  2
0-NGraph
 70
1
 62
-7
420
0
  6
CONTINUOUS
370
140
390
F
  0
LAYER
  5
60
100
AcDbSymbolTableRecord
100
AcDbLayerTableRecord
  2
0-NGraph Vertex Idx
 70
1
 62
-7
420
0
  6
CONTINUOUS
370
35
390
F
  0
LAYER
  5
61
100
AcDbSymbolTableRecord
100
AcDbLayerTableRecord
  2
1-UGrid NGraph Part1
 70
1
 62
-91
420
7405424
  6
CONTINUOUS
370
0
390
F
  0
LAYER
  5
62
100
AcDbSymbolTableRecord
100
AcDbLayerTableRecord
  2
1-UGrid NGraph Part2
 70
1
 62
-150
420
3769599
  6
CONTINUOUS
370
0
390
F
  0
LAYER
  5
63
100
AcDbSymbolTableRecord
100
AcDbLayerTableRecord
  2
1-DGraph InitPart1
 70
1
 62
-91
420
7405424
  6
CONTINUOUS
370
0
390
F
  0
LAYER
  5
64
100
AcDbSymbolTableRecord
100
AcDbLayerTableRecord
  2
1-DGraph InitPart2
 70
1
 62
-150
420
3769599
  6
CONTINUOUS
370
0
390
F
  0
LAYER
  5
65
100
AcDbSymbolTableRecord
100
AcDbLayerTableRecord
  2
1-UGrid DG InitPart1
 70
1
 62
-91
420
7405424
  6
CONTINUOUS
370
0
390
F
  0
LAYER
  5
66
100
AcDbSymbolTableRecord
100
AcDbLayerTableRecord
  2
1-UGrid DG InitPart2
 70
1
 62
-150
420
3769599
  6
CONTINUOUS
370
0
390
F
  0
LAYER
  5
67
100
AcDbSymbolTableRecord
100
AcDbLayerTableRecord
  2
1-UGrid DG Part2 BorderEdges
 70
1
 62
-150
420
3381759
  6
CONTINUOUS
370
140
390
F
  0
LAYER
  5
68
100
AcDbSymbolTableRecord
100
AcDbLayerTableRecord
  2
1-UGrid DG Part2 InteriorEdges
 70
1
 62
-4
420
65535
  6
CONTINUOUS
370
140
390
F
  0
LAYER
  5
69
100
AcDbSymbolTableRecord
100
AcDbLayerTableRecord
  2
1-UGrid DG Part2 GhostElems
 70
1
 62
-2
420
16776960
  6
CONTINUOUS
370
140
390
F
  0
LAYER
  5
6A
100
AcDbSymbolTableRecord
100
AcDbLayerTableRecord
  2
1-UGrid DG Part2 GhostEdges
 70
1
 62
-40
420
16763955
  6
CONTINUOUS
370
140
390
F
  0
LAYER
  5
6B
100
AcDbSymbolTableRecord
100
AcDbLayerTableRecord
  2
1-UGrid DG Part2 BorderVertices
 70
1
 62
-150
420
3381759
  6
CONTINUOUS
370
0
390
F
  0
LAYER
  5
6C
100
AcDbSymbolTableRecord
100
AcDbLayerTableRecord
  2
1-UGrid DG Part2 InteriorVertices
 70
1
 62
-4
420
65535
  6
CONTINUOUS
370
0
390
F
  0
LAYER
  5
6D
100
AcDbSymbolTableRecord
100
AcDbLayerTableRecord
  2
1-UGrid DG Part2 GhostVertices
 70
1
 62
-51
420
16777088
  6
CONTINUOUS
370
0
390
F
  0
LAYER
  5
6E
100
AcDbSymbolTableRecord
100
AcDbLayerTableRecord
  2
1-UGrid DG Part2 OverlapElems Example
 70
1
 62
-3
420
65280
  6
CONTINUOUS
370
0
390
F
  0
LAYER
  5
6F
100
AcDbSymbolTableRecord
100
AcDbLayerTableRecord
  2
1-UGrid DG Part2 OverlapEdges Example
 70
1
 62
-94
420
32768
  6
CONTINUOUS
370
140
390
F
  0
LAYER
  5
70
100
AcDbSymbolTableRecord
100
AcDbLayerTableRecord
  2
1-UGrid DG Part2 FrontEdges Example
 70
1
 62
-6
420
16711935
  6
CONTINUOUS
370
140
390
F
  0
LAYER
  5
71
100
AcDbSymbolTableRecord
100
AcDbLayerTableRecord
  2
1-UGrid DG Part2 FrontVertices Example
 70
1
 62
-6
420
16711935
  6
CONTINUOUS
370
0
390
F
  0
LAYER
  5
72
100
AcDbSymbolTableRecord
100
AcDbLayerTableRecord
  2
1-UGrid DG Part2 Ghost2OverlapElems
 70
1
 62
-2
420
16776960
  6
CONTINUOUS
370
0
390
F
  0
LAYER
  5
73
100
AcDbSymbolTableRecord
100
AcDbLayerTableRecord
  2
1-UGrid DG Part2 Ghost2OverlapEdges
 70
1
 62
-52
420
11776768
  6
CONTINUOUS
370
140
390
F
  0
LAYER
  5
74
100
AcDbSymbolTableRecord
100
AcDbLayerTableRecord
  2
1-UGrid DG Part2 Ghost2OverlapVertices
 70
1
 62
-52
420
11776768
  6
CONTINUOUS
370
0
390
F
  0
LAYER
  5
75
100
AcDbSymbolTableRecord
100
AcDbLayerTableRecord
  2
0-UGrid Mark Element
 70
0
 62
2
420
16776960
  6
CONTINUOUS
370
0
390
F
  0
LAYER
  5
76
100
AcDbSymbolTableRecord
100
AcDbLayerTableRecord
  2
0-UGrid Mark Neighbors
 70
1
 62
-30
420
16737843
  6
CONTINUOUS
370
0
390
F
  0
LAYER
  5
77
100
AcDbSymbolTableRecord
100
AcDbLayerTableRecord
  2
0-UGrid Mark UpAdj Vertex
 70
1
 62
-2
420
16776960
  6
CONTINUOUS
370
50
390
F
  0
LAYER
  5
78
100
AcDbSymbolTableRecord
100
AcDbLayerTableRecord
  2
0-UGrid Mark UpAdj Edges
 70
1
 62
-1
420
16711680
  6
CONTINUOUS
370
100
390
F
  0
LAYER
  5
79
100
AcDbSymbolTableRecord
100
AcDbLayerTableRecord
  2
0-UGrid Mark DownAdj Vertices
 70
1
 62
-1
420
16711680
  6
CONTINUOUS
370
50
390
F
  0
LAYER
  5
7A
100
AcDbSymbolTableRecord
100
AcDbLayerTableRecord
  2
1-NGraph Part2 Elements
 70
1
 62
-141
420
8446207
  6
CONTINUOUS
370
0
390
F
  0
LAYER
  5
7B
100
AcDbSymbolTableRecord
100
AcDbLayerTableRecord
  2
1-NGraph Part1 Elements
 70
1
 62
-61
420
14745472
  6
CONTINUOUS
370
0
390
F
  0
LAYER
  5
7C
100
AcDbSymbolTableRecord
100
AcDbLayerTableRecord
  2
1-UGrid Mark Element
 70
1
 62
-2
420
16776960
  6
CONTINUOUS
370
0
390
F
  0
LAYER
  5
7D
100
AcDbSymbolTableRecord
100
AcDbLayerTableRecord
  2
1-UGrid Mark Neighbors
 70
1
 62
-30
420
16737843
  6
CONTINUOUS
370
0
390
F
  0
LAYER
  5
7E
100
AcDbSymbolTableRecord
100
AcDbLayerTableRecord
  2
0-UGrid DG Part1
 70
1
 62
-91
420
7405424
  6
CONTINUOUS
370
0
390
F
  0
LAYER
  5
7F
100
AcDbSymbolTableRecord
100
AcDbLayerTableRecord
  2
0-UGrid DG Part2
 70
1
 62
-150
420
3769599
  6
CONTINUOUS
370
0
390
F
  0
LAYER
  5
80
100
AcDbSymbolTableRecord
100
AcDbLayerTableRecord
  2
0-UGrid DG Part2 BorderEdges
 70
1
 62
-4
420
65535
  6
CONTINUOUS
370
140
390
F
  0
LAYER
  5
81
100
AcDbSymbolTableRecord
100
AcDbLayerTableRecord
  2
1-UGrid DG Part2 H5Fed OverlapElems
 70
1
 62
-3
420
65280
  6
CONTINUOUS
370
0
390
F
  0
LAYER
  5
82
100
AcDbSymbolTableRecord
100
AcDbLayerTableRecord
  2
1-UGrid DG Part2 H5Fed FrontVertices
 70
1
 62
-6
420
16711935
  6
CONTINUOUS
370
0
390
F
  0
LAYER
  5
83
100
AcDbSymbolTableRecord
100
AcDbLayerTableRecord
  2
1-UGrid DG Part2 H5Fed FrontEdges
 70
1
 62
-6
420
16711935
  6
CONTINUOUS
370
140
390
F
  0
LAYER
  5
84
100
AcDbSymbolTableRecord
100
AcDbLayerTableRecord
  2
1-UGrid DG Part2 H5Fed OverlapEdges
 70
1
 62
-82
420
3381504
  6
CONTINUOUS
370
140
390
F
  0
LAYER
  5
85
100
AcDbSymbolTableRecord
100
AcDbLayerTableRecord
  2
1-UGrid DG Part2 OverlapVertices H5Fed
 70
1
 62
-82
420
3381504
  6
CONTINUOUS
370
0
390
F
  0
LAYER
  5
86
100
AcDbSymbolTableRecord
100
AcDbLayerTableRecord
  2
1-UGrid 0Part1 FrontEdges H5Fed
 70
1
 62
-6
420
16711935
  6
CONTINUOUS
370
140
390
F
  0
LAYER
  5
87
100
AcDbSymbolTableRecord
100
AcDbLayerTableRecord
  2
1-UGrid 0Part1 FrontVertices H5Fed
 70
1
 62
-6
420
16711935
  6
CONTINUOUS
370
0
390
F
  0
LAYER
  5
88
100
AcDbSymbolTableRecord
100
AcDbLayerTableRecord
  2
1-UGrid 0Part1 OverlapVertices H5Fed
 70
1
 62
-7
420
0
  6
CONTINUOUS
370
0
390
F
  0
LAYER
  5
89
100
AcDbSymbolTableRecord
100
AcDbLayerTableRecord
  2
1-UGrid 0Part1 OverlapEdges H5Fed
 70
1
 62
-82
420
3381504
  6
CONTINUOUS
370
140
390
F
  0
LAYER
  5
8A
100
AcDbSymbolTableRecord
100
AcDbLayerTableRecord
  2
1-UGrid 0Part1 OverlapElems H5Fed
 70
1
 62
-3
420
65280
  6
CONTINUOUS
370
0
390
F
  0
LAYER
  5
8B
100
AcDbSymbolTableRecord
100
AcDbLayerTableRecord
  2
1-UGrid 0Part1 BorderVertices H5Fed
 70
1
 62
-150
420
3381759
  6
CONTINUOUS
370
0
390
F
  0
LAYER
  5
8C
100
AcDbSymbolTableRecord
100
AcDbLayerTableRecord
  2
1-UGrid 0Part1 BorderEdges H5Fed
 70
1
 62
-150
420
3381759
  6
CONTINUOUS
370
140
390
F
  0
LAYER
  5
8D
100
AcDbSymbolTableRecord
100
AcDbLayerTableRecord
  2
1-UGrid 0Part1 InteriorElems H5Fed
 70
1
 62
-30
420
16737843
  6
CONTINUOUS
370
0
390
F
  0
LAYER
  5
8E
100
AcDbSymbolTableRecord
100
AcDbLayerTableRecord
  2
1-UGrid 0Part1 InteriorVertices H5Fed
 70
1
 62
-1
420
16711680
  6
CONTINUOUS
370
-3
390
F
  0
LAYER
  5
8F
100
AcDbSymbolTableRecord
100
AcDbLayerTableRecord
  2
1-UGrid 0Part1 InteriorEdges H5Fed
 70
1
 62
-1
420
16711680
  6
CONTINUOUS
370
140
390
F
  0
LAYER
  5
90
100
AcDbSymbolTableRecord
100
AcDbLayerTableRecord
  2
0-UGrid Part1 BorderEdges H5Fed
 70
1
 62
-4
420
65535
  6
CONTINUOUS
370
140
390
F
  0
LAYER
  5
91
100
AcDbSymbolTableRecord
100
AcDbLayerTableRecord
  2
0-UGrid Part1 BorderVertices H5Fed
 70
1
 62
-4
420
65535
  6
CONTINUOUS
370
0
390
F
  0
LAYER
  5
92
100
AcDbSymbolTableRecord
100
AcDbLayerTableRecord
  2
0-UGrid Part1 FrontEdges H5Fed
 70
1
 62
-6
420
16711935
  6
CONTINUOUS
370
140
390
F
  0
LAYER
  5
93
100
AcDbSymbolTableRecord
100
AcDbLayerTableRecord
  2
0-UGrid Part1 FrontVertices H5Fed
 70
1
 62
-6
420
16711935
  6
CONTINUOUS
370
0
390
F
  0
LAYER
  5
94
100
AcDbSymbolTableRecord
100
AcDbLayerTableRecord
  2
0-UGrid Part1 InteriorEdges H5Fed
 70
1
 62
-1
420
16711680
  6
CONTINUOUS
370
140
390
F
  0
LAYER
  5
95
100
AcDbSymbolTableRecord
100
AcDbLayerTableRecord
  2
0-UGrid Part1 InteriorElems H5Fed
 70
1
 62
-30
420
16737843
  6
CONTINUOUS
370
0
390
F
  0
LAYER
  5
96
100
AcDbSymbolTableRecord
100
AcDbLayerTableRecord
  2
0-UGrid Part1 InteriorVertices H5Fed
 70
1
 62
-1
420
16711680
  6
CONTINUOUS
370
-3
390
F
  0
LAYER
  5
97
100
AcDbSymbolTableRecord
100
AcDbLayerTableRecord
  2
0-UGrid Part1 OverlapEdges H5Fed
 70
1
 62
-82
420
3381504
  6
CONTINUOUS
370
140
390
F
  0
LAYER
  5
98
100
AcDbSymbolTableRecord
100
AcDbLayerTableRecord
  2
0-UGrid Part1 OverlapElems H5Fed
 70
1
 62
-3
420
65280
  6
CONTINUOUS
370
0
390
F
  0
LAYER
  5
99
100
AcDbSymbolTableRecord
100
AcDbLayerTableRecord
  2
0-UGrid Part1 OverlapVertices H5Fed
 70
1
 62
-7
420
0
  6
CONTINUOUS
370
0
390
F
  0
LAYER
  5
9A
100
AcDbSymbolTableRecord
100
AcDbLayerTableRecord
  2
0-UGrid Part2 BorderEdges H5Fed
 70
1
 62
-150
420
3381759
  6
CONTINUOUS
370
140
390
F
  0
LAYER
  5
9B
100
AcDbSymbolTableRecord
100
AcDbLayerTableRecord
  2
0-UGrid Part2 BorderVertices H5Fed
 70
1
 62
-150
420
3381759
  6
CONTINUOUS
370
0
390
F
  0
LAYER
  5
9C
100
AcDbSymbolTableRecord
100
AcDbLayerTableRecord
  2
0-UGrid Part2 FrontEdges H5Fed
 70
1
 62
-6
420
16711935
  6
CONTINUOUS
370
0
390
F
  0
LAYER
  5
9D
100
AcDbSymbolTableRecord
100
AcDbLayerTableRecord
  2
0-UGrid Part2 FrontVertices H5Fed
 70
1
 62
-6
420
16711935
  6
CONTINUOUS
370
0
390
F
  0
LAYER
  5
9E
100
AcDbSymbolTableRecord
100
AcDbLayerTableRecord
  2
0-UGrid Part2 InteriorEdges H5Fed
 70
1
 62
-1
420
16711680
  6
CONTINUOUS
370
140
390
F
  0
LAYER
  5
9F
100
AcDbSymbolTableRecord
100
AcDbLayerTableRecord
  2
0-UGrid Part2 InteriorElems H5Fed
 70
1
 62
-30
420
16737843
  6
CONTINUOUS
370
0
390
F
  0
LAYER
  5
A0
100
AcDbSymbolTableRecord
100
AcDbLayerTableRecord
  2
0-UGrid Part2 InteriorVertices H5Fed
 70
1
 62
-1
420
16711680
  6
CONTINUOUS
370
0
390
F
  0
LAYER
  5
A1
100
AcDbSymbolTableRecord
100
AcDbLayerTableRecord
  2
0-UGrid Part2 OverlapEdges H5Fed
 70
1
 62
-82
420
3381504
  6
CONTINUOUS
370
140
390
F
  0
LAYER
  5
A2
100
AcDbSymbolTableRecord
100
AcDbLayerTableRecord
  2
0-UGrid Part2 OverlapElems H5Fed
 70
1
 62
-3
420
65280
  6
CONTINUOUS
370
0
390
F
  0
LAYER
  5
A3
100
AcDbSymbolTableRecord
100
AcDbLayerTableRecord
  2
0-UGrid Part2 OverlapVertices H5Fed
 70
1
 62
-82
420
3381504
  6
CONTINUOUS
370
0
390
F
  0
LAYER
  5
A4
100
AcDbSymbolTableRecord
100
AcDbLayerTableRecord
  2
1-UGrid 0Part2 BorderEdges H5Fed
 70
1
 62
-150
420
3381759
  6
CONTINUOUS
370
140
390
F
  0
LAYER
  5
A5
100
AcDbSymbolTableRecord
100
AcDbLayerTableRecord
  2
1-UGrid 0Part2 BorderVertices H5Fed
 70
1
 62
-150
420
3381759
  6
CONTINUOUS
370
0
390
F
  0
LAYER
  5
A6
100
AcDbSymbolTableRecord
100
AcDbLayerTableRecord
  2
1-UGrid 0Part2 FrontEdges H5Fed
 70
1
 62
-6
420
16711935
  6
CONTINUOUS
370
140
390
F
  0
LAYER
  5
A7
100
AcDbSymbolTableRecord
100
AcDbLayerTableRecord
  2
1-UGrid 0Part2 FrontVertices H5Fed
 70
1
 62
-6
420
16711935
  6
CONTINUOUS
370
0
390
F
  0
LAYER
  5
A8
100
AcDbSymbolTableRecord
100
AcDbLayerTableRecord
  2
1-UGrid 0Part2 InteriorEdges H5Fed
 70
1
 62
-1
420
16711680
  6
CONTINUOUS
370
140
390
F
  0
LAYER
  5
A9
100
AcDbSymbolTableRecord
100
AcDbLayerTableRecord
  2
1-UGrid 0Part2 InteriorVertices H5Fed
 70
1
 62
-1
420
16711680
  6
CONTINUOUS
370
0
390
F
  0
LAYER
  5
AA
100
AcDbSymbolTableRecord
100
AcDbLayerTableRecord
  2
1-UGrid 0Part2 InteriorElems H5Fed
 70
1
 62
-30
420
16737843
  6
CONTINUOUS
370
0
390
F
  0
LAYER
  5
AB
100
AcDbSymbolTableRecord
100
AcDbLayerTableRecord
  2
1-UGrid 0Part2 OverlapEdges H5Fed
 70
1
 62
-82
420
3381504
  6
CONTINUOUS
370
140
390
F
  0
LAYER
  5
AC
100
AcDbSymbolTableRecord
100
AcDbLayerTableRecord
  2
1-UGrid 0Part2 OverlapVertices H5Fed
 70
1
 62
-82
420
3381504
  6
CONTINUOUS
370
0
390
F
  0
LAYER
  5
AD
100
AcDbSymbolTableRecord
100
AcDbLayerTableRecord
  2
1-UGrid 0Part2 OverlapElems H5Fed
 70
1
 62
-3
420
65280
  6
CONTINUOUS
370
0
390
F
  0
LAYER
  5
AE
100
AcDbSymbolTableRecord
100
AcDbLayerTableRecord
  2
1-UGrid 0Part2 GhostElems H5Fed
 70
1
 62
-2
420
16776960
  6
CONTINUOUS
370
0
390
F
  0
LAYER
  5
AF
100
AcDbSymbolTableRecord
100
AcDbLayerTableRecord
  2
1-UGrid 0Part1 GhostElems H5Fed
 70
1
 62
-2
420
16776960
  6
CONTINUOUS
370
0
390
F
  0
LAYER
  5
B0
100
AcDbSymbolTableRecord
100
AcDbLayerTableRecord
  2
1-UGrid 0Part1 GhostEdges H5Fed
 70
1
 62
-40
420
16763955
  6
CONTINUOUS
370
140
390
F
  0
LAYER
  5
B1
100
AcDbSymbolTableRecord
100
AcDbLayerTableRecord
  2
1-UGrid 0Part1 GhostVertices H5Fed
 70
1
 62
-40
420
16763955
  6
CONTINUOUS
370
0
390
F
  0
LAYER
  5
B2
100
AcDbSymbolTableRecord
100
AcDbLayerTableRecord
  2
2-UGrid Triangle Idx
 70
1
 62
-7
420
0
  6
CONTINUOUS
370
35
390
F
  0
LAYER
  5
B3
100
AcDbSymbolTableRecord
100
AcDbLayerTableRecord
  2
0-UGrid Mark UpAdj Elems
 70
1
 62
-30
420
16737843
  6
CONTINUOUS
370
0
390
F
  0
LAYER
  5
B4
100
AcDbSymbolTableRecord
100
AcDbLayerTableRecord
  2
0-UGrid Mark DownAdj Edges
 70
0
 62
1
420
16711680
  6
CONTINUOUS
370
100
390
F
  0
LAYER
  5
B5
100
AcDbSymbolTableRecord
100
AcDbLayerTableRecord
  2
1-UGrid DG Part2 H5Fed BorderVertices
 70
1
 62
-5
420
255
  6
CONTINUOUS
370
0
390
F
  0
LAYER
  5
B6
100
AcDbSymbolTableRecord
100
AcDbLayerTableRecord
  2
1-UGrid DG Part2 H5Fed BorderEdges
 70
1
 62
-150
420
3381759
  6
CONTINUOUS
370
140
390
F
  0
LAYER
  5
B7
100
AcDbSymbolTableRecord
100
AcDbLayerTableRecord
  2
1-UGrid DG Part2 H5Fed GhostEdges
 70
1
 62
-40
420
13421568
  6
CONTINUOUS
370
140
390
F
  0
LAYER
  5
B8
100
AcDbSymbolTableRecord
100
AcDbLayerTableRecord
  2
1-UGrid DG Part2 H5Fed GhostElems
 70
1
 62
-2
420
16776960
  6
CONTINUOUS
370
0
390
F
  0
LAYER
  5
B9
100
AcDbSymbolTableRecord
100
AcDbLayerTableRecord
  2
1-UGrid DG Part2 H5Fed OverlapVertices
 70
1
 62
-82
420
3381504
  6
CONTINUOUS
370
0
390
F
  0
LAYER
  5
BA
100
AcDbSymbolTableRecord
100
AcDbLayerTableRecord
  2
1-UGrid DG Part2 H5Fed InteriorElems
 70
1
 62
-30
420
16737843
  6
CONTINUOUS
370
-3
390
F
  0
LAYER
  5
BB
100
AcDbSymbolTableRecord
100
AcDbLayerTableRecord
  2
1-UGrid DG Part2 H5Fed InteriorEdges
 70
1
 62
-1
420
16711680
  6
CONTINUOUS
370
140
390
F
  0
LAYER
  5
BC
100
AcDbSymbolTableRecord
100
AcDbLayerTableRecord
  2
1-UGrid DG Part2 H5Fed InteriorVertices
 70
1
 62
-1
420
16711680
  6
CONTINUOUS
370
0
390
F
  0
LAYER
  5
BD
100
AcDbSymbolTableRecord
100
AcDbLayerTableRecord
  2
1-UGrid GlobalIdx Triangles
 70
0
 62
7
420
0
  6
CONTINUOUS
370
35
390
F
  0
LAYER
  5
BE
100
AcDbSymbolTableRecord
100
AcDbLayerTableRecord
  2
1-UGrid Mark DownAdjVertices
 70
0
 62
1
420
16711680
  6
CONTINUOUS
370
0
390
F
  0
ENDTAB
  0
TABLE
  2
STYLE
  5
3
100
AcDbSymbolTable
 70
1
  0
STYLE
  5
11
100
AcDbSymbolTableRecord
100
AcDbTextStyleTableRecord
  2
Standard
 70
0
 40
0.0
 41
0.75
 50
0.0
 71
0
 42
2.5
  3
txt
  4

  0
ENDTAB
  0
TABLE
  2
VIEW
  5
6
100
AcDbSymbolTable
 70
0
  0
ENDTAB
  0
TABLE
  2
UCS
  5
7
100
AcDbSymbolTable
 70
0
  0
ENDTAB
  0
TABLE
  2
APPID
  5
9
100
AcDbSymbolTable
 70
1
  0
APPID
  5
12
100
AcDbSymbolTableRecord
100
AcDbRegAppTableRecord
  2
ACAD
 70
0
  0
ENDTAB
  0
TABLE
  2
DIMSTYLE
  5
A
100
AcDbSymbolTable
 70
1
100
AcDbDimStyleTable
 71
0
  0
DIMSTYLE
105
27
100
AcDbSymbolTableRecord
100
AcDbDimStyleTableRecord
  2
Standard
 41
2.5
 42
0.625
 43
3.75
 44
1.25
 70
0
 73
0
 74
0
 77
1
 78
8
140
2.5
141
2.5
143
0.03937007874016
147
0.625
171
3
172
1
271
2
272
2
274
3
278
44
283
0
284
8
340
11
  0
ENDTAB
  0
TABLE
  2
BLOCK_RECORD
  5
1
100
AcDbSymbolTable
 70
1
  0
BLOCK_RECORD
  5
1F
100
AcDbSymbolTableRecord
100
AcDbBlockTableRecord
  2
*Model_Space
340
22
  0
BLOCK_RECORD
  5
1B
100
AcDbSymbolTableRecord
100
AcDbBlockTableRecord
  2
*Paper_Space
340
1E
  0
BLOCK_RECORD
  5
23
100
AcDbSymbolTableRecord
100
AcDbBlockTableRecord
  2
*Paper_Space0
340
26
  0
BLOCK_RECORD
  5
BF
100
AcDbSymbolTableRecord
100
AcDbBlockTableRecord
  2
dnode
340
0
  0
ENDTAB
  0
ENDSEC
  0
SECTION
  2
BLOCKS
  0
BLOCK
  5
20
100
AcDbEntity
  8
0
100
AcDbBlockBegin
  2
*Model_Space
 70
0
 10
0.0
 20
0.0
 30
0.0
  3
*Model_Space
  1

  0
ENDBLK
  5
21
100
AcDbEntity
  8
0
100
AcDbBlockEnd
  0
BLOCK
  5
1C
100
AcDbEntity
 67
1
  8
0
100
AcDbBlockBegin
  2
*Paper_Space
 70
0
 10
0.0
 20
0.0
 30
0.0
  3
*Paper_Space
  1

  0
ENDBLK
  5
1D
100
AcDbEntity
 67
1
  8
0
100
AcDbBlockEnd
  0
BLOCK
  5
24
100
AcDbEntity
  8
0
100
AcDbBlockBegin
  2
*Paper_Space0
 70
0
 10
0.0
 20
0.0
 30
0.0
  3
*Paper_Space0
  1

  0
ENDBLK
  5
25
100
AcDbEntity
  8
0
100
AcDbBlockEnd
  0
BLOCK
  5
C0
100
AcDbEntity
  8
0
100
AcDbBlockBegin
  2
dnode
 70
0
 10
0.0
 20
0.0
 30
0.0
  3
dnode
  1

  0
CIRCLE
  5
C1
100
AcDbEntity
100
AcDbCircle
  8
1-DGraph
 62
256
370
-1
  6
ByLayer
 10
0.0
 20
-7.2874765306784965
 30
0.0
 40
7.2874765306784965
  0
MTEXT
  5
C2
100
AcDbEntity
100
AcDbMText
  8
1-UGrid Triangle Idx
 62
256
370
-1
  6
ByLayer
 10
-5.8010481366463864
 20
-5.4746489879768205
 30
0.0
 40
3.0
 41
100.0
 71
1
 72
2
  1
D[3]
  7
greeks
 50
0.0
 73
0
 44
1.0
  0
ENDBLK
  5
C3
100
AcDbEntity
  8
0
100
AcDbBlockEnd
  0
ENDSEC
  0
SECTION
  2
ENTITIES
  0
HATCH
  5
C4
  8
0-UGrid Mark Element
 62
256
370
-1
  6
ByLayer
100
AcDbEntity
100
AcDbHatch
 10
0.0
 20
0.0
 30
0.0
210
0.0
220
0.0
230
1.0
  2
SOLID
 70
1
 71
0
 91
1
 92
1
 93
4
 72
1
 10
140.0
 20
90.0
 11
180.0000175342504178
 21
74.9999934246560969
 72
1
 10
180.0000175342504178
 20
74.9999934246560969
 11
220.0
 21
60.0
 72
1
 10
220.0
 20
60.0
 11
200.0
 21
120.0
 72
1
 10
200.0
 20
120.0
 11
140.0
 21
90.0
 97
0
 75
0
 76
1
 98
0
  0
HATCH
  5
C5
  8
1-UGrid Mark Neighbors
 62
256
370
-1
  6
ByLayer
100
AcDbEntity
100
AcDbHatch
 10
0.0
 20
0.0
 30
0.0
210
0.0
220
0.0
230
1.0
  2
SOLID
 70
1
 71
0
 91
1
 92
1
 93
3
 72
1
 10
159.9999450076830101
 20
40.0001374807924535
 11
180.0000175342504178
 21
74.9999934246560827
 72
1
 10
180.0000175342504178
 20
74.9999934246560969
 11
200.0
 21
24.9999999999999964
 72
1
 10
200.0
 20
25.0
 11
159.9999450076830385
 21
40.0001374807924535
 97
0
 75
0
 76
1
 98
0
  0
HATCH
  5
C6
  8
1-UGrid Mark Neighbors
 62
256
370
-1
  6
ByLayer
100
AcDbEntity
100
AcDbHatch
 10
0.0
 20
0.0
 30
0.0
210
0.0
220
0.0
230
1.0
  2
SOLID
 70
1
 71
0
 91
1
 92
1
 93
3
 72
1
 10
115.0000891911591054
 20
40.0001783823182038
 11
159.9999450076830101
 21
40.0001374807924535
 72
1
 10
159.9999450076830385
 20
40.0001374807924535
 11
140.0
 21
90.0
 72
1
 10
140.0
 20
90.0
 11
115.0000891911591054
 21
40.0001783823182038
 97
0
 75
0
 76
1
 98
0
  0
HATCH
  5
C7
  8
1-UGrid Mark Neighbors
 62
256
370
-1
  6
ByLayer
100
AcDbEntity
100
AcDbHatch
 10
0.0
 20
0.0
 30
0.0
210
0.0
220
0.0
230
1.0
  2
SOLID
 70
1
 71
0
 91
1
 92
1
 93
4
 72
1
 10
140.0
 20
90.0
 11
200.0
 21
120.0
 72
1
 10
200.0
 20
120.0
 11
220.0
 21
60.0
 72
1
 10
220.0
 20
60.0
 11
180.0000175342504178
 21
74.9999934246560969
 72
1
 10
180.0000175342504178
 20
74.9999934246560969
 11
140.0
 21
90.0
 97
0
 75
0
 76
1
 98
0
  0
HATCH
  5
C8
  8
1-UGrid Mark Element
 62
256
370
-1
  6
ByLayer
100
AcDbEntity
100
AcDbHatch
 10
0.0
 20
0.0
 30
0.0
210
0.0
220
0.0
230
1.0
  2
SOLID
 70
1
 71
0
 91
1
 92
1
 93
3
 72
1
 10
159.9999450076830101
 20
40.0001374807924535
 11
180.0000175342504178
 21
74.9999934246560827
 72
1
 10
180.0000175342504178
 20
74.9999934246560969
 11
140.0
 21
90.0
 72
1
 10
140.0
 20
90.0
 11
159.9999450076830385
 21
40.0001374807924535
 97
0
 75
0
 76
1
 98
0
  0
HATCH
  5
C9
  8
0-UGrid Mark Neighbors
 62
256
370
-1
  6
ByLayer
100
AcDbEntity
100
AcDbHatch
 10
0.0
 20
0.0
 30
0.0
210
0.0
220
0.0
230
1.0
  2
SOLID
 70
1
 71
0
 91
1
 92
1
 93
3
 72
1
 10
140.0
 20
90.0
 11
90.0
 21
-10.0
 72
1
 10
90.0
 20
-10.0
 11
180.0
 21
-10.0
 72
1
 10
180.0
 20
-10.0
 11
140.0
 21
90.0
 97
0
 75
0
 76
1
 98
0
  0
HATCH
  5
CA
  8
0-UGrid Mark Neighbors
 62
256
370
-1
  6
ByLayer
100
AcDbEntity
100
AcDbHatch
 10
0.0
 20
0.0
 30
0.0
210
0.0
220
0.0
230
1.0
  2
SOLID
 70
1
 71
0
 91
1
 92
1
 93
3
 72
1
 10
220.0
 20
60.0
 11
180.0
 21
-10.0
 72
1
 10
180.0
 20
-10.0
 11
240.0
 21
-60.0
 72
1
 10
240.0
 20
-60.0
 11
220.0
 21
60.0
 97
0
 75
0
 76
1
 98
0
  0
HATCH
  5
CB
  8
0-UGrid Mark Neighbors
 62
256
370
-1
  6
ByLayer
100
AcDbEntity
100
AcDbHatch
 10
0.0
 20
0.0
 30
0.0
210
0.0
220
0.0
230
1.0
  2
SOLID
 70
1
 71
0
 91
1
 92
1
 93
3
 72
1
 10
140.0
 20
90.0
 11
220.0
 21
60.0
 72
1
 10
220.0
 20
60.0
 11
200.0
 21
120.0
 72
1
 10
200.0
 20
120.0
 11
140.0
 21
90.0
 97
0
 75
0
 76
1
 98
0
  0
HATCH
  5
CC
  8
1-UGrid DG Part2 H5Fed InteriorElems
 62
256
370
-1
  6
ByLayer
100
AcDbEntity
100
AcDbHatch
 10
0.0
 20
0.0
 30
0.0
210
0.0
220
0.0
230
1.0
  2
SOLID
 70
1
 71
0
 91
1
 92
1
 93
9
 72
1
 10
140.0
 20
90.0
 11
115.0000891911591054
 21
40.0001783823182038
 72
1
 10
115.0000891911591054
 20
40.0001783823182038
 11
135.0
 21
-10.0
 72
1
 10
135.0
 20
-10.0
 11
159.9997155749006481
 21
-40.0004266376490492
 72
1
 10
159.9997155749006197
 20
-40.0004266376490492
 11
140.0
 21
-70.0
 72
1
 10
140.0
 20
-70.0
 11
240.0
 21
-60.0
 72
1
 10
240.0
 20
-60.0
 11
220.0
 21
60.0
 72
1
 10
220.0
 20
60.0
 11
200.0
 21
120.0
 72
1
 10
200.0
 20
120.0
 11
130.0
 21
150.0
 72
1
 10
130.0
 20
150.0
 11
140.0
 21
90.0
 97
0
 75
0
 76
1
 98
0
  0
HATCH
  5
CD
  8
1-UGrid DG Part2 H5Fed GhostElems
 62
256
370
-1
  6
ByLayer
100
AcDbEntity
100
AcDbHatch
 10
0.0
 20
0.0
 30
0.0
210
0.0
220
0.0
230
1.0
  2
SOLID
 70
1
 71
0
 91
1
 92
1
 93
3
 72
1
 10
70.0
 20
35.0
 11
95.0
 21
85.0
 72
1
 10
95.0
 20
85.0
 11
50.0
 21
80.0
 72
1
 10
50.0
 20
80.0
 11
70.0
 21
35.0
 97
0
 75
0
 76
1
 98
0
  0
HATCH
  5
CE
  8
1-UGrid DG Part2 H5Fed OverlapElems
 62
256
370
-1
  6
ByLayer
100
AcDbEntity
100
AcDbHatch
 10
0.0
 20
0.0
 30
0.0
210
0.0
220
0.0
230
1.0
  2
SOLID
 70
1
 71
0
 91
1
 92
1
 93
3
 72
1
 10
95.0
 20
85.0
 11
115.0000891911591054
 21
40.0001783823182038
 72
1
 10
115.0000891911591054
 20
40.0001783823182038
 11
140.0
 21
90.0
 72
1
 10
140.0
 20
90.0
 11
95.0
 21
85.0
 97
0
 75
0
 76
1
 98
0
  0
HATCH
  5
CF
  8
1-UGrid DG Part2 H5Fed OverlapElems
 62
256
370
-1
  6
ByLayer
100
AcDbEntity
100
AcDbHatch
 10
0.0
 20
0.0
 30
0.0
210
0.0
220
0.0
230
1.0
  2
SOLID
 70
1
 71
0
 91
1
 92
1
 93
4
 72
1
 10
95.0
 20
85.0
 11
140.0
 21
90.0
 72
1
 10
140.0
 20
90.0
 11
130.0
 21
150.0
 72
1
 10
130.0
 20
150.0
 11
50.0
 21
80.0
 72
1
 10
50.0
 20
80.0
 11
95.0
 21
85.0
 97
0
 75
0
 76
1
 98
0
  0
HATCH
  5
D0
  8
1-UGrid DG Part2 H5Fed OverlapElems
 62
256
370
-1
  6
ByLayer
100
AcDbEntity
100
AcDbHatch
 10
0.0
 20
0.0
 30
0.0
210
0.0
220
0.0
230
1.0
  2
SOLID
 70
1
 71
0
 91
1
 92
1
 93
3
 72
1
 10
115.0000891911591054
 20
40.0001783823182038
 11
90.0
 21
-10.0
 72
1
 10
90.0
 20
-10.0
 11
135.0
 21
-10.0
 72
1
 10
135.0
 20
-10.0
 11
115.0000891911591054
 21
40.0001783823182038
 97
0
 75
0
 76
1
 98
0
  0
HATCH
  5
D1
  8
1-UGrid DG Part2 H5Fed OverlapElems
 62
256
370
-1
  6
ByLayer
100
AcDbEntity
100
AcDbHatch
 10
0.0
 20
0.0
 30
0.0
210
0.0
220
0.0
230
1.0
  2
SOLID
 70
1
 71
0
 91
1
 92
1
 93
4
 72
1
 10
140.0
 20
-70.0
 11
114.9999989626024757
 21
-39.9999987551229736
 72
1
 10
114.9999989626024757
 20
-39.9999987551229665
 11
134.9999999999999716
 21
-10.0000000000000355
 72
1
 10
135.0
 20
-10.0
 11
159.9997155749006481
 21
-40.0004266376490492
 72
1
 10
159.9997155749006197
 20
-40.0004266376490492
 11
140.0
 21
-70.0
 97
0
 75
0
 76
1
 98
0
  0
HATCH
  5
D2
  8
0-UGrid Mark UpAdj Elems
 62
256
370
-1
  6
ByLayer
100
AcDbEntity
100
AcDbHatch
 10
0.0
 20
0.0
 30
0.0
210
0.0
220
0.0
230
1.0
  2
SOLID
 70
1
 71
0
 91
1
 92
1
 93
6
 72
1
 10
50.0
 20
80.0
 11
90.0
 21
-10.0
 72
1
 10
90.0
 20
-10.0
 11
180.0
 21
-10.0
 72
1
 10
180.0
 20
-10.0
 11
220.0
 21
60.0
 72
1
 10
220.0
 20
60.0
 11
200.0
 21
120.0
 72
1
 10
200.0
 20
120.0
 11
130.0
 21
150.0
 72
1
 10
130.0
 20
150.0
 11
50.0
 21
80.0
 97
0
 75
0
 76
1
 98
0
  0
HATCH
  5
D3
  8
1-UGrid 0Part1 GhostElems H5Fed
 62
256
370
-1
  6
ByLayer
100
AcDbEntity
100
AcDbHatch
 10
0.0
 20
0.0
 30
0.0
210
0.0
220
0.0
230
1.0
  2
SOLID
 70
1
 71
0
 91
1
 92
1
 93
7
 72
1
 10
159.9999450076830385
 20
40.0001374807924535
 11
200.0
 21
25.0
 72
1
 10
200.0
 20
24.9999999999999964
 11
180.0
 21
-10.0
 72
1
 10
180.0
 20
-10.0
 11
159.9997155749006197
 21
-40.0004266376490492
 72
1
 10
159.9997155749006197
 20
-40.0004266376490492
 11
140.0
 21
-70.0
 72
1
 10
140.0
 20
-70.0
 11
114.9999989626024757
 21
-39.9999987551229665
 72
1
 10
114.9999989626024757
 20
-39.9999987551229665
 11
135.0
 21
-10.0
 72
1
 10
135.0
 20
-10.0
 11
159.9999450076830101
 21
40.0001374807924535
 97
0
 75
0
 76
1
 98
0
  0
HATCH
  5
D4
  8
1-UGrid 0Part2 GhostElems H5Fed
 62
256
370
-1
  6
ByLayer
100
AcDbEntity
100
AcDbHatch
 10
0.0
 20
0.0
 30
0.0
210
0.0
220
0.0
230
1.0
  2
SOLID
 70
1
 71
0
 91
1
 92
1
 93
3
 72
1
 10
70.0
 20
35.0
 11
95.0
 21
85.0
 72
1
 10
95.0
 20
85.0
 11
50.0
 21
80.0
 72
1
 10
50.0
 20
80.0
 11
70.0
 21
35.0
 97
0
 75
0
 76
1
 98
0
  0
HATCH
  5
D5
  8
1-UGrid 0Part2 OverlapElems H5Fed
 62
256
370
-1
  6
ByLayer
100
AcDbEntity
100
AcDbHatch
 10
0.0
 20
0.0
 30
0.0
210
0.0
220
0.0
230
1.0
  2
SOLID
 70
1
 71
0
 91
1
 92
1
 93
5
 72
1
 10
140.0
 20
90.0
 11
180.0000175342504178
 21
74.9999934246560969
 72
1
 10
180.0000175342504178
 20
74.9999934246560969
 11
220.0
 21
60.0
 72
1
 10
220.0
 20
60.0
 11
200.0
 21
120.0
 72
1
 10
200.0
 20
120.0
 11
130.0
 21
150.0
 72
1
 10
130.0
 20
150.0
 11
140.0
 21
90.0
 97
0
 75
0
 76
1
 98
0
  0
HATCH
  5
D6
  8
1-UGrid 0Part2 OverlapElems H5Fed
 62
256
370
-1
  6
ByLayer
100
AcDbEntity
100
AcDbHatch
 10
0.0
 20
0.0
 30
0.0
210
0.0
220
0.0
230
1.0
  2
SOLID
 70
1
 71
0
 91
1
 92
1
 93
4
 72
1
 10
95.0
 20
85.0
 11
140.0
 21
90.0
 72
1
 10
140.0
 20
90.0
 11
130.0
 21
150.0
 72
1
 10
130.0
 20
150.0
 11
50.0
 21
80.0
 72
1
 10
50.0
 20
80.0
 11
95.0
 21
85.0
 97
0
 75
0
 76
1
 98
0
  0
HATCH
  5
D7
  8
1-UGrid 0Part2 OverlapElems H5Fed
 62
256
370
-1
  6
ByLayer
100
AcDbEntity
100
AcDbHatch
 10
0.0
 20
0.0
 30
0.0
210
0.0
220
0.0
230
1.0
  2
SOLID
 70
1
 71
0
 91
1
 92
1
 93
3
 72
1
 10
95.0
 20
85.0
 11
115.0000891911591054
 21
40.0001783823182038
 72
1
 10
115.0000891911591054
 20
40.0001783823182038
 11
140.0
 21
90.0
 72
1
 10
140.0
 20
90.0
 11
95.0
 21
85.0
 97
0
 75
0
 76
1
 98
0
  0
HATCH
  5
D8
  8
1-UGrid 0Part2 OverlapElems H5Fed
 62
256
370
-1
  6
ByLayer
100
AcDbEntity
100
AcDbHatch
 10
0.0
 20
0.0
 30
0.0
210
0.0
220
0.0
230
1.0
  2
SOLID
 70
1
 71
0
 91
1
 92
1
 93
3
 72
1
 10
70.0
 20
35.0
 11
115.0000891911591054
 21
40.0001783823182038
 72
1
 10
115.0000891911591054
 20
40.0001783823182038
 11
95.0
 21
85.0
 72
1
 10
95.0
 20
85.0
 11
70.0
 21
35.0
 97
0
 75
0
 76
1
 98
0
  0
HATCH
  5
D9
  8
1-UGrid 0Part2 OverlapElems H5Fed
 62
256
370
-1
  6
ByLayer
100
AcDbEntity
100
AcDbHatch
 10
0.0
 20
0.0
 30
0.0
210
0.0
220
0.0
230
1.0
  2
SOLID
 70
1
 71
0
 91
1
 92
1
 93
3
 72
1
 10
70.0
 20
35.0
 11
115.0000891911591054
 21
40.0001783823182038
 72
1
 10
115.0000891911591054
 20
40.0001783823182038
 11
90.0
 21
-10.0
 72
1
 10
90.0
 20
-10.0
 11
70.0
 21
35.0
 97
0
 75
0
 76
1
 98
0
  0
HATCH
  5
DA
  8
1-UGrid 0Part2 OverlapElems H5Fed
 62
256
370
-1
  6
ByLayer
100
AcDbEntity
100
AcDbHatch
 10
0.0
 20
0.0
 30
0.0
210
0.0
220
0.0
230
1.0
  2
SOLID
 70
1
 71
0
 91
1
 92
1
 93
4
 72
1
 10
70.0
 20
35.0
 11
90.0
 21
-10.0
 72
1
 10
90.0
 20
-10.0
 11
0.0
 21
0.0
 72
1
 10
0.0
 20
0.0
 11
50.0
 21
80.0
 72
1
 10
50.0
 20
80.0
 11
70.0
 21
35.0
 97
0
 75
0
 76
1
 98
0
  0
HATCH
  5
DB
  8
1-UGrid 0Part2 OverlapElems H5Fed
 62
256
370
-1
  6
ByLayer
100
AcDbEntity
100
AcDbHatch
 10
0.0
 20
0.0
 30
0.0
210
0.0
220
0.0
230
1.0
  2
SOLID
 70
1
 71
0
 91
1
 92
1
 93
3
 72
1
 10
0.0
 20
0.0
 11
60.0
 21
-70.0
 72
1
 10
60.0
 20
-70.0
 11
90.0
 21
-10.0
 72
1
 10
90.0
 20
-10.0
 11
0.0
 21
0.0
 97
0
 75
0
 76
1
 98
0
  0
HATCH
  5
DC
  8
1-UGrid 0Part2 InteriorElems H5Fed
 62
256
370
-1
  6
ByLayer
100
AcDbEntity
100
AcDbHatch
 10
0.0
 20
0.0
 30
0.0
210
0.0
220
0.0
230
1.0
  2
SOLID
 70
1
 71
0
 91
1
 92
1
 93
8
 72
1
 10
115.0000891911591054
 20
40.0001783823182038
 11
90.0
 21
-10.0
 72
1
 10
90.0
 20
-10.0
 11
60.0
 21
-70.0
 72
1
 10
60.0
 20
-70.0
 11
140.0
 21
-70.0
 72
1
 10
140.0
 20
-70.0
 11
240.0
 21
-60.0
 72
1
 10
240.0
 20
-60.0
 11
220.0
 21
60.0
 72
1
 10
220.0
 20
60.0
 11
180.0000175342504178
 21
74.9999934246560969
 72
1
 10
180.0000175342504178
 20
74.9999934246560969
 11
140.0
 21
90.0
 72
1
 10
140.0
 20
90.0
 11
115.0000891911591054
 21
40.0001783823182038
 97
0
 75
0
 76
1
 98
0
  0
HATCH
  5
DD
  8
0-UGrid Part2 OverlapElems H5Fed
 62
256
370
-1
  6
ByLayer
100
AcDbEntity
100
AcDbHatch
 10
0.0
 20
0.0
 30
0.0
210
0.0
220
0.0
230
1.0
  2
SOLID
 70
1
 71
0
 91
1
 92
1
 93
8
 72
1
 10
0.0
 20
0.0
 11
50.0
 21
80.0
 72
1
 10
50.0
 20
80.0
 11
130.0
 21
150.0
 72
1
 10
130.0
 20
150.0
 11
200.0
 21
120.0
 72
1
 10
200.0
 20
120.0
 11
220.0
 21
60.0
 72
1
 10
220.0
 20
60.0
 11
140.0
 21
90.0
 72
1
 10
140.0
 20
90.0
 11
90.0
 21
-10.0
 72
1
 10
90.0
 20
-10.0
 11
60.0
 21
-70.0
 72
1
 10
60.0
 20
-70.0
 11
0.0
 21
0.0
 97
0
 75
0
 76
1
 98
0
  0
HATCH
  5
DE
  8
0-UGrid Part2 InteriorElems H5Fed
 62
256
370
-1
  6
ByLayer
100
AcDbEntity
100
AcDbHatch
 10
0.0
 20
0.0
 30
0.0
210
0.0
220
0.0
230
1.0
  2
SOLID
 70
1
 71
0
 91
1
 92
1
 93
6
 72
1
 10
90.0
 20
-10.0
 11
60.0
 21
-70.0
 72
1
 10
60.0
 20
-70.0
 11
140.0
 21
-70.0
 72
1
 10
140.0
 20
-70.0
 11
240.0
 21
-60.0
 72
1
 10
240.0
 20
-60.0
 11
220.0
 21
60.0
 72
1
 10
220.0
 20
60.0
 11
140.0
 21
90.0
 72
1
 10
140.0
 20
90.0
 11
90.0
 21
-10.0
 97
0
 75
0
 76
1
 98
0
  0
HATCH
  5
DF
  8
0-UGrid Part1 OverlapElems H5Fed
 62
256
370
-1
  6
ByLayer
100
AcDbEntity
100
AcDbHatch
 10
0.0
 20
0.0
 30
0.0
210
0.0
220
0.0
230
1.0
  2
SOLID
 70
1
 71
0
 91
1
 92
1
 93
7
 72
1
 10
180.0
 20
-10.0
 11
140.0
 21
-70.0
 72
1
 10
140.0
 20
-70.0
 11
60.0
 21
-70.0
 72
1
 10
60.0
 20
-70.0
 11
90.0
 21
-10.0
 72
1
 10
90.0
 20
-10.0
 11
140.0
 21
90.0
 72
1
 10
140.0
 20
90.0
 11
220.0
 21
60.0
 72
1
 10
220.0
 20
60.0
 11
240.0
 21
-60.0
 72
1
 10
240.0
 20
-60.0
 11
180.0
 21
-10.0
 97
0
 75
0
 76
1
 98
0
  0
HATCH
  5
E0
  8
0-UGrid Part1 InteriorElems H5Fed
 62
256
370
-1
  6
ByLayer
100
AcDbEntity
100
AcDbHatch
 10
0.0
 20
0.0
 30
0.0
210
0.0
220
0.0
230
1.0
  2
SOLID
 70
1
 71
0
 91
1
 92
1
 93
8
 72
1
 10
0.0
 20
0.0
 11
50.0
 21
80.0
 72
1
 10
50.0
 20
80.0
 11
130.0
 21
150.0
 72
1
 10
130.0
 20
150.0
 11
200.0
 21
120.0
 72
1
 10
200.0
 20
120.0
 11
220.0
 21
60.0
 72
1
 10
220.0
 20
60.0
 11
140.0
 21
90.0
 72
1
 10
140.0
 20
90.0
 11
90.0
 21
-10.0
 72
1
 10
90.0
 20
-10.0
 11
60.0
 21
-70.0
 72
1
 10
60.0
 20
-70.0
 11
0.0
 21
0.0
 97
0
 75
0
 76
1
 98
0
  0
LINE
  5
E1
100
AcDbEntity
100
AcDbLine
  8
1-UGrid
 62
256
370
-1
  6
ByLayer
 10
0.0
 20
0.0
 30
0.0
 11
60.0
 21
-70.0
 31
0.0
  0
HATCH
  5
E2
  8
1-UGrid 0Part1 InteriorElems H5Fed
 62
256
370
-1
  6
ByLayer
100
AcDbEntity
100
AcDbHatch
 10
0.0
 20
0.0
 30
0.0
210
0.0
220
0.0
230
1.0
  2
SOLID
 70
1
 71
0
 91
1
 92
1
 93
10
 72
1
 10
115.0000891911591054
 20
40.0001783823182038
 11
90.0
 21
-10.0
 72
1
 10
90.0
 20
-10.0
 11
60.0
 21
-70.0
 72
1
 10
60.0
 20
-70.0
 11
0.0
 21
0.0
 72
1
 10
0.0
 20
0.0
 11
50.0
 21
80.0
 72
1
 10
50.0
 20
80.0
 11
130.0
 21
150.0
 72
1
 10
130.0
 20
150.0
 11
200.0
 21
120.0
 72
1
 10
200.0
 20
120.0
 11
220.0
 21
60.0
 72
1
 10
220.0
 20
60.0
 11
180.0000175342504178
 21
74.9999934246560969
 72
1
 10
180.0000175342504178
 20
74.9999934246560969
 11
140.0
 21
90.0
 72
1
 10
140.0
 20
90.0
 11
115.0000891911591054
 21
40.0001783823182038
 97
0
 75
0
 76
1
 98
0
  0
HATCH
  5
E3
  8
1-UGrid 0Part1 OverlapElems H5Fed
 62
256
370
-1
  6
ByLayer
100
AcDbEntity
100
AcDbHatch
 10
0.0
 20
0.0
 30
0.0
210
0.0
220
0.0
230
1.0
  2
SOLID
 70
1
 71
0
 91
1
 92
1
 93
4
 72
1
 10
200.0
 20
25.0
 11
180.0
 21
-10.0
 72
1
 10
180.0
 20
-10.0
 11
240.0
 21
-60.0
 72
1
 10
240.0
 20
-60.0
 11
220.0
 21
60.0
 72
1
 10
220.0
 20
60.0
 11
200.0
 21
25.0
 97
0
 75
0
 76
1
 98
0
  0
HATCH
  5
E4
  8
1-UGrid 0Part1 OverlapElems H5Fed
 62
256
370
-1
  6
ByLayer
100
AcDbEntity
100
AcDbHatch
 10
0.0
 20
0.0
 30
0.0
210
0.0
220
0.0
230
1.0
  2
SOLID
 70
1
 71
0
 91
1
 92
1
 93
3
 72
1
 10
200.0
 20
24.9999999999999964
 11
180.0000175342504178
 21
74.9999934246560969
 72
1
 10
180.0000175342504178
 20
74.9999934246560969
 11
220.0
 21
60.0
 72
1
 10
220.0
 20
60.0
 11
200.0
 21
25.0
 97
0
 75
0
 76
1
 98
0
  0
HATCH
  5
E5
  8
1-UGrid 0Part1 OverlapElems H5Fed
 62
256
370
-1
  6
ByLayer
100
AcDbEntity
100
AcDbHatch
 10
0.0
 20
0.0
 30
0.0
210
0.0
220
0.0
230
1.0
  2
SOLID
 70
1
 71
0
 91
1
 92
1
 93
3
 72
1
 10
200.0
 20
24.9999999999999964
 11
180.0000175342504178
 21
74.9999934246560969
 72
1
 10
180.0000175342504178
 20
74.9999934246560827
 11
159.9999450076830101
 21
40.0001374807924535
 72
1
 10
159.9999450076830385
 20
40.0001374807924535
 11
200.0
 21
25.0
 97
0
 75
0
 76
1
 98
0
  0
HATCH
  5
E6
  8
1-UGrid 0Part1 OverlapElems H5Fed
 62
256
370
-1
  6
ByLayer
100
AcDbEntity
100
AcDbHatch
 10
0.0
 20
0.0
 30
0.0
210
0.0
220
0.0
230
1.0
  2
SOLID
 70
1
 71
0
 91
1
 92
1
 93
3
 72
1
 10
140.0
 20
90.0
 11
180.0000175342504178
 21
74.9999934246560969
 72
1
 10
180.0000175342504178
 20
74.9999934246560827
 11
159.9999450076830101
 21
40.0001374807924535
 72
1
 10
159.9999450076830385
 20
40.0001374807924535
 11
140.0
 21
90.0
 97
0
 75
0
 76
1
 98
0
  0
HATCH
  5
E7
  8
1-UGrid 0Part1 OverlapElems H5Fed
 62
256
370
-1
  6
ByLayer
100
AcDbEntity
100
AcDbHatch
 10
0.0
 20
0.0
 30
0.0
210
0.0
220
0.0
230
1.0
  2
SOLID
 70
1
 71
0
 91
1
 92
1
 93
3
 72
1
 10
140.0
 20
90.0
 11
115.0000891911591054
 21
40.0001783823182038
 72
1
 10
115.0000891911591054
 20
40.0001783823182038
 11
159.9999450076830101
 21
40.0001374807924535
 72
1
 10
159.9999450076830385
 20
40.0001374807924535
 11
140.0
 21
90.0
 97
0
 75
0
 76
1
 98
0
  0
HATCH
  5
E8
  8
1-UGrid 0Part1 OverlapElems H5Fed
 62
256
370
-1
  6
ByLayer
100
AcDbEntity
100
AcDbHatch
 10
0.0
 20
0.0
 30
0.0
210
0.0
220
0.0
230
1.0
  2
SOLID
 70
1
 71
0
 91
1
 92
1
 93
3
 72
1
 10
159.9999450076830101
 20
40.0001374807924535
 11
135.0
 21
-10.0
 72
1
 10
135.0
 20
-10.0
 11
115.0000891911591054
 21
40.0001783823182038
 72
1
 10
115.0000891911591054
 20
40.0001783823182038
 11
159.9999450076830101
 21
40.0001374807924535
 97
0
 75
0
 76
1
 98
0
  0
HATCH
  5
E9
  8
1-UGrid 0Part1 OverlapElems H5Fed
 62
256
370
-1
  6
ByLayer
100
AcDbEntity
100
AcDbHatch
 10
0.0
 20
0.0
 30
0.0
210
0.0
220
0.0
230
1.0
  2
SOLID
 70
1
 71
0
 91
1
 92
1
 93
3
 72
1
 10
115.0000891911591054
 20
40.0001783823182038
 11
90.0
 21
-10.0
 72
1
 10
90.0
 20
-10.0
 11
135.0
 21
-10.0
 72
1
 10
135.0
 20
-10.0
 11
115.0000891911591054
 21
40.0001783823182038
 97
0
 75
0
 76
1
 98
0
  0
HATCH
  5
EA
  8
1-UGrid 0Part1 OverlapElems H5Fed
 62
256
370
-1
  6
ByLayer
100
AcDbEntity
100
AcDbHatch
 10
0.0
 20
0.0
 30
0.0
210
0.0
220
0.0
230
1.0
  2
SOLID
 70
1
 71
0
 91
1
 92
1
 93
3
 72
1
 10
114.9999989626024757
 20
-39.9999987551229736
 11
90.0
 21
-10.0
 72
1
 10
90.0
 20
-10.0
 11
135.0
 21
-10.0
 72
1
 10
135.0
 20
-10.0
 11
114.9999989626024757
 21
-39.9999987551229665
 97
0
 75
0
 76
1
 98
0
  0
HATCH
  5
EB
  8
1-UGrid 0Part1 OverlapElems H5Fed
 62
256
370
-1
  6
ByLayer
100
AcDbEntity
100
AcDbHatch
 10
0.0
 20
0.0
 30
0.0
210
0.0
220
0.0
230
1.0
  2
SOLID
 70
1
 71
0
 91
1
 92
1
 93
4
 72
1
 10
114.9999989626024757
 20
-39.9999987551229736
 11
90.0
 21
-10.0
 72
1
 10
90.0
 20
-10.0
 11
60.0
 21
-70.0
 72
1
 10
60.0
 20
-70.0
 11
140.0
 21
-70.0
 72
1
 10
140.0
 20
-70.0
 11
114.9999989626024757
 21
-39.9999987551229736
 97
0
 75
0
 76
1
 98
0
  0
LINE
  5
EC
100
AcDbEntity
100
AcDbLine
  8
1-UGrid
 62
256
370
-1
  6
ByLayer
 10
140.0
 20
90.0
 30
0.0
 11
115.0000891911591054
 21
40.0001783823182038
 31
0.0
  0
HATCH
  5
ED
  8
1-UGrid DG Part2 H5Fed OverlapElems
 62
256
370
-1
  6
ByLayer
100
AcDbEntity
100
AcDbHatch
 10
0.0
 20
0.0
 30
0.0
210
0.0
220
0.0
230
1.0
  2
SOLID
 70
1
 71
0
 91
1
 92
1
 93
4
 72
1
 10
114.9999989626024757
 20
-39.9999987551229736
 11
90.0
 21
-10.0
 72
1
 10
90.0
 20
-10.0
 11
60.0
 21
-70.0
 72
1
 10
60.0
 20
-70.0
 11
140.0
 21
-70.0
 72
1
 10
140.0
 20
-70.0
 11
114.9999989626024757
 21
-39.9999987551229736
 97
0
 75
0
 76
1
 98
0
  0
HATCH
  5
EE
  8
1-UGrid DG Part2 OverlapElems Example
 62
256
370
-1
  6
ByLayer
100
AcDbEntity
100
AcDbHatch
 10
0.0
 20
0.0
 30
0.0
210
0.0
220
0.0
230
1.0
  2
SOLID
 70
1
 71
0
 91
1
 92
1
 93
3
 72
1
 10
159.9997155749006481
 20
-40.0004266376490492
 11
114.9999989626024757
 21
-39.9999987551229665
 72
1
 10
114.9999989626024757
 20
-39.9999987551229736
 11
140.0
 21
-70.0
 72
1
 10
140.0
 20
-70.0
 11
159.9997155749006197
 21
-40.0004266376490492
 97
0
 75
0
 76
1
 98
0
  0
HATCH
  5
EF
  8
1-UGrid DG Part2 OverlapElems Example
 62
256
370
-1
  6
ByLayer
100
AcDbEntity
100
AcDbHatch
 10
0.0
 20
0.0
 30
0.0
210
0.0
220
0.0
230
1.0
  2
SOLID
 70
1
 71
0
 91
1
 92
1
 93
3
 72
1
 10
114.9999989626024757
 20
-39.9999987551229665
 11
135.0
 21
-10.0
 72
1
 10
134.9999999999999716
 20
-10.0000000000000249
 11
159.9997155749006197
 21
-40.0004266376490492
 72
1
 10
159.9997155749006481
 20
-40.0004266376490492
 11
114.9999989626024757
 21
-39.9999987551229665
 97
0
 75
0
 76
1
 98
0
  0
HATCH
  5
F0
  8
1-UGrid DG Part2 H5Fed OverlapElems
 62
256
370
-1
  6
ByLayer
100
AcDbEntity
100
AcDbHatch
 10
0.0
 20
0.0
 30
0.0
210
0.0
220
0.0
230
1.0
  2
SOLID
 70
1
 71
0
 91
1
 92
1
 93
3
 72
1
 10
114.9999989626024757
 20
-39.9999987551229736
 11
90.0
 21
-10.0
 72
1
 10
90.0
 20
-10.0
 11
135.0
 21
-10.0
 72
1
 10
135.0
 20
-10.0
 11
114.9999989626024757
 21
-39.9999987551229665
 97
0
 75
0
 76
1
 98
0
  0
HATCH
  5
F1
  8
1-UGrid DG Part2 OverlapElems Example
 62
256
370
-1
  6
ByLayer
100
AcDbEntity
100
AcDbHatch
 10
0.0
 20
0.0
 30
0.0
210
0.0
220
0.0
230
1.0
  2
SOLID
 70
1
 71
0
 91
1
 92
1
 93
3
 72
1
 10
135.0
 20
-10.0
 11
115.0000891911591054
 21
40.0001783823182038
 72
1
 10
115.0000891911591054
 20
40.0001783823182038
 11
90.0
 21
-10.0
 72
1
 10
90.0
 20
-10.0
 11
135.0
 21
-10.0
 97
0
 75
0
 76
1
 98
0
  0
HATCH
  5
F2
  8
1-UGrid DG Part2 H5Fed OverlapElems
 62
256
370
-1
  6
ByLayer
100
AcDbEntity
100
AcDbHatch
 10
0.0
 20
0.0
 30
0.0
210
0.0
220
0.0
230
1.0
  2
SOLID
 70
1
 71
0
 91
1
 92
1
 93
3
 72
1
 10
70.0
 20
35.0
 11
115.0000891911591054
 21
40.0001783823182038
 72
1
 10
115.0000891911591054
 20
40.0001783823182038
 11
90.0
 21
-10.0
 72
1
 10
90.0
 20
-10.0
 11
70.0
 21
35.0
 97
0
 75
0
 76
1
 98
0
  0
HATCH
  5
F3
  8
1-UGrid DG Part2 H5Fed OverlapElems
 62
256
370
-1
  6
ByLayer
100
AcDbEntity
100
AcDbHatch
 10
0.0
 20
0.0
 30
0.0
210
0.0
220
0.0
230
1.0
  2
SOLID
 70
1
 71
0
 91
1
 92
1
 93
3
 72
1
 10
70.0
 20
35.0
 11
115.0000891911591054
 21
40.0001783823182038
 72
1
 10
115.0000891911591054
 20
40.0001783823182038
 11
95.0
 21
85.0
 72
1
 10
95.0
 20
85.0
 11
70.0
 21
35.0
 97
0
 75
0
 76
1
 98
0
  0
LINE
  5
F4
100
AcDbEntity
100
AcDbLine
  8
1-UGrid
 62
256
370
-1
  6
ByLayer
 10
70.0
 20
35.0
 30
0.0
 11
115.0000891911591054
 21
40.0001783823182038
 31
0.0
  0
LINE
  5
F5
100
AcDbEntity
100
AcDbLine
  8
1-UGrid
 62
256
370
-1
  6
ByLayer
 10
70.0
 20
35.0
 30
0.0
 11
95.0
 21
85.0
 31
0.0
  0
LINE
  5
F6
100
AcDbEntity
100
AcDbLine
  8
1-UGrid
 62
256
370
-1
  6
ByLayer
 10
70.0
 20
35.0
 30
0.0
 11
90.0
 21
-10.0
 31
0.0
  0
LINE
  5
F7
100
AcDbEntity
100
AcDbLine
  8
1-UGrid
 62
256
370
-1
  6
ByLayer
 10
50.0
 20
80.0
 30
0.0
 11
70.0
 21
35.0
 31
0.0
  0
LINE
  5
F8
100
AcDbEntity
100
AcDbLine
  8
1-UGrid
 62
256
370
-1
  6
ByLayer
 10
95.0
 20
85.0
 30
0.0
 11
115.0000891911591054
 21
40.0001783823182038
 31
0.0
  0
LINE
  5
F9
100
AcDbEntity
100
AcDbLine
  8
1-UGrid
 62
256
370
-1
  6
ByLayer
 10
95.0
 20
85.0
 30
0.0
 11
140.0
 21
90.0
 31
0.0
  0
LINE
  5
FA
100
AcDbEntity
100
AcDbLine
  8
1-UGrid
 62
256
370
-1
  6
ByLayer
 10
50.0
 20
80.0
 30
0.0
 11
95.0
 21
85.0
 31
0.0
  0
LINE
  5
FB
100
AcDbEntity
100
AcDbLine
  8
1-UGrid
 62
256
370
-1
  6
ByLayer
 10
200.0
 20
24.9999999999999964
 30
0.0
 11
180.0000175342504178
 21
74.9999934246560969
 31
0.0
  0
LINE
  5
FC
100
AcDbEntity
100
AcDbLine
  8
1-UGrid
 62
256
370
-1
  6
ByLayer
 10
159.9999450076830385
 20
40.0001374807924535
 30
0.0
 11
200.0
 21
25.0
 31
0.0
  0
LINE
  5
FD
100
AcDbEntity
100
AcDbLine
  8
1-UGrid
 62
256
370
-1
  6
ByLayer
 10
200.0
 20
25.0
 30
0.0
 11
180.0
 21
-10.0
 31
0.0
  0
LINE
  5
FE
100
AcDbEntity
100
AcDbLine
  8
1-UGrid
 62
256
370
-1
  6
ByLayer
 10
220.0
 20
60.0
 30
0.0
 11
200.0
 21
25.0
 31
0.0
  0
LINE
  5
FF
100
AcDbEntity
100
AcDbLine
  8
1-UGrid
 62
256
370
-1
  6
ByLayer
 10
115.0000891911591054
 20
40.0001783823182038
 30
0.0
 11
90.0
 21
-10.0
 31
0.0
  0
LINE
  5
100
100
AcDbEntity
100
AcDbLine
  8
1-UGrid
 62
256
370
-1
  6
ByLayer
 10
114.9999989626024757
 20
-39.9999987551229736
 30
0.0
 11
90.0
 21
-10.0
 31
0.0
  0
LINE
  5
101
100
AcDbEntity
100
AcDbLine
  8
1-UGrid
 62
256
370
-1
  6
ByLayer
 10
140.0
 20
-70.0
 30
0.0
 11
114.9999989626024757
 21
-39.9999987551229736
 31
0.0
  0
LINE
  5
102
100
AcDbEntity
100
AcDbLine
  8
1-UGrid
 62
256
370
-1
  6
ByLayer
 10
140.0
 20
90.0
 30
0.0
 11
180.0000175342504178
 21
74.9999934246560969
 31
0.0
  0
LINE
  5
103
100
AcDbEntity
100
AcDbLine
  8
1-UGrid
 62
256
370
-1
  6
ByLayer
 10
135.0
 20
-10.0
 30
0.0
 11
180.0
 21
-10.0
 31
0.0
  0
LINE
  5
104
100
AcDbEntity
100
AcDbLine
  8
1-UGrid
 62
256
370
-1
  6
ByLayer
 10
90.0
 20
-10.0
 30
0.0
 11
135.0
 21
-10.0
 31
0.0
  0
LINE
  5
105
100
AcDbEntity
100
AcDbLine
  8
1-UGrid
 62
256
370
-1
  6
ByLayer
 10
159.9997155749006197
 20
-40.0004266376490492
 30
0.0
 11
140.0
 21
-70.0
 31
0.0
  0
LINE
  5
106
100
AcDbEntity
100
AcDbLine
  8
1-UGrid
 62
256
370
-1
  6
ByLayer
 10
180.0
 20
-10.0
 30
0.0
 11
159.9997155749006197
 21
-40.0004266376490492
 31
0.0
  0
LINE
  5
107
100
AcDbEntity
100
AcDbLine
  8
1-UGrid
 62
256
370
-1
  6
ByLayer
 10
159.9999450076830385
 20
40.0001374807924535
 30
0.0
 11
140.0
 21
90.0
 31
0.0
  0
LINE
  5
108
100
AcDbEntity
100
AcDbLine
  8
1-UGrid
 62
256
370
-1
  6
ByLayer
 10
180.0
 20
-10.0
 30
0.0
 11
159.9999450076830385
 21
40.0001374807924535
 31
0.0
  0
LINE
  5
109
100
AcDbEntity
100
AcDbLine
  8
1-UGrid
 62
256
370
-1
  6
ByLayer
 10
159.9997155749006481
 20
-40.0004266376490492
 30
0.0
 11
114.9999989626024757
 21
-39.9999987551229665
 31
0.0
  0
LINE
  5
10A
100
AcDbEntity
100
AcDbLine
  8
1-UGrid
 62
256
370
-1
  6
ByLayer
 10
135.0
 20
-10.0
 30
0.0
 11
159.9997155749006481
 21
-40.0004266376490492
 31
0.0
  0
LINE
  5
10B
100
AcDbEntity
100
AcDbLine
  8
1-UGrid
 62
256
370
-1
  6
ByLayer
 10
114.9999989626024757
 20
-39.9999987551229665
 30
0.0
 11
135.0
 21
-10.0
 31
0.0
  0
LINE
  5
10C
100
AcDbEntity
100
AcDbLine
  8
1-UGrid
 62
256
370
-1
  6
ByLayer
 10
159.9999450076830101
 20
40.0001374807924535
 30
0.0
 11
180.0000175342504178
 21
74.9999934246560827
 31
0.0
  0
LINE
  5
10D
100
AcDbEntity
100
AcDbLine
  8
1-UGrid
 62
256
370
-1
  6
ByLayer
 10
159.9999450076830101
 20
40.0001374807924535
 30
0.0
 11
135.0
 21
-10.0
 31
0.0
  0
LINE
  5
10E
100
AcDbEntity
100
AcDbLine
  8
1-UGrid
 62
256
370
-1
  6
ByLayer
 10
115.0000891911591054
 20
40.0001783823182038
 30
0.0
 11
159.9999450076830101
 21
40.0001374807924535
 31
0.0
  0
LINE
  5
10F
100
AcDbEntity
100
AcDbLine
  8
1-UGrid
 62
256
370
-1
  6
ByLayer
 10
200.0
 20
120.0
 30
0.0
 11
220.0
 21
60.0
 31
0.0
  0
LINE
  5
110
100
AcDbEntity
100
AcDbLine
  8
1-UGrid
 62
256
370
-1
  6
ByLayer
 10
130.0
 20
150.0
 30
0.0
 11
200.0
 21
120.0
 31
0.0
  0
LINE
  5
111
100
AcDbEntity
100
AcDbLine
  8
1-UGrid
 62
256
370
-1
  6
ByLayer
 10
140.0
 20
90.0
 30
0.0
 11
200.0
 21
120.0
 31
0.0
  0
LINE
  5
112
100
AcDbEntity
100
AcDbLine
  8
1-UGrid
 62
256
370
-1
  6
ByLayer
 10
130.0
 20
150.0
 30
0.0
 11
140.0
 21
90.0
 31
0.0
  0
LINE
  5
113
100
AcDbEntity
100
AcDbLine
  8
1-UGrid
 62
256
370
-1
  6
ByLayer
 10
50.0
 20
80.0
 30
0.0
 11
130.0
 21
150.0
 31
0.0
  0
LINE
  5
114
100
AcDbEntity
100
AcDbLine
  8
1-UGrid
 62
256
370
-1
  6
ByLayer
 10
220.0
 20
60.0
 30
0.0
 11
240.0
 21
-60.0
 31
0.0
  0
LINE
  5
115
100
AcDbEntity
100
AcDbLine
  8
1-UGrid
 62
256
370
-1
  6
ByLayer
 10
240.0
 20
-60.0
 30
0.0
 11
180.0
 21
-10.0
 31
0.0
  0
LINE
  5
116
100
AcDbEntity
100
AcDbLine
  8
1-UGrid
 62
256
370
-1
  6
ByLayer
 10
140.0
 20
-70.0
 30
0.0
 11
240.0
 21
-60.0
 31
0.0
  0
LINE
  5
117
100
AcDbEntity
100
AcDbLine
  8
1-UGrid
 62
256
370
-1
  6
ByLayer
 10
60.0
 20
-70.0
 30
0.0
 11
140.0
 21
-70.0
 31
0.0
  0
LINE
  5
118
100
AcDbEntity
100
AcDbLine
  8
1-UGrid
 62
256
370
-1
  6
ByLayer
 10
90.0
 20
-10.0
 30
0.0
 11
60.0
 21
-70.0
 31
0.0
  0
LINE
  5
119
100
AcDbEntity
100
AcDbLine
  8
1-UGrid
 62
256
370
-1
  6
ByLayer
 10
90.0
 20
-10.0
 30
0.0
 11
0.0
 21
0.0
 31
0.0
  0
LINE
  5
11A
100
AcDbEntity
100
AcDbLine
  8
1-UGrid
 62
256
370
-1
  6
ByLayer
 10
0.0
 20
0.0
 30
0.0
 11
50.0
 21
80.0
 31
0.0
  0
LINE
  5
11B
100
AcDbEntity
100
AcDbLine
  8
1-NGraph
 62
256
370
-1
  6
ByLayer
 10
73.2422985673746894
 20
41.4845971347493929
 30
0.0
 11
91.7577014326253106
 21
78.5154028652506071
 31
0.0
  0
LINE
  5
11C
100
AcDbEntity
100
AcDbLine
  8
1-NGraph
 62
256
370
-1
  6
ByLayer
 10
52.9445038788874953
 20
73.3748662725031409
 30
0.0
 11
67.0554961211124976
 21
41.6251337274968662
 31
0.0
  0
LINE
  5
11D
100
AcDbEntity
100
AcDbLine
  8
1-NGraph
 62
256
370
-1
  6
ByLayer
 10
87.0554961211124976
 20
-3.3748662725031346
 30
0.0
 11
72.9445038788875024
 21
28.3748662725031267
 31
0.0
  0
LINE
  5
11E
100
AcDbEntity
100
AcDbLine
  8
1-NGraph
 62
256
370
-1
  6
ByLayer
 10
77.2056541154809963
 20
35.8006552117183077
 30
0.0
 11
107.7944350756780523
 21
39.199523170599889
 31
0.0
  0
CIRCLE
  5
11F
100
AcDbEntity
100
AcDbCircle
  8
1-NGraph
 62
256
370
-1
  6
ByLayer
 10
70.0
 20
35.0
 30
0.0
 40
7.25
  0
LINE
  5
120
100
AcDbEntity
100
AcDbLine
  8
1-NGraph
 62
256
370
-1
  6
ByLayer
 10
87.7943429236162558
 20
84.1993714359573744
 30
0.0
 11
57.2056570763837442
 21
80.8006285640426398
 31
0.0
  0
LINE
  5
121
100
AcDbEntity
100
AcDbLine
  8
1-NGraph
 62
256
370
-1
  6
ByLayer
 10
57.2056570763837371
 20
80.8006285640426398
 30
0.0
 11
87.7943429236162558
 21
84.1993714359573602
 31
0.0
  0
LINE
  5
122
100
AcDbEntity
100
AcDbLine
  8
1-NGraph
 62
256
370
-1
  6
ByLayer
 10
97.9059571128615147
 20
78.3578683197177099
 30
0.0
 11
111.8341033799194122
 21
46.5223738595351151
 31
0.0
  0
CIRCLE
  5
123
100
AcDbEntity
100
AcDbCircle
  8
1-NGraph
 62
256
370
-1
  6
ByLayer
 10
95.0
 20
85.0
 30
0.0
 40
7.25
  0
LINE
  5
124
100
AcDbEntity
100
AcDbLine
  8
1-NGraph
 62
256
370
-1
  6
ByLayer
 10
216.4029926969129747
 20
53.7052372195976702
 30
0.0
 11
203.5970073030870822
 21
31.2947627804023867
 31
0.0
  0
LINE
  5
125
100
AcDbEntity
100
AcDbLine
  8
1-NGraph
 62
256
370
-1
  6
ByLayer
 10
196.4029926969129463
 20
18.7052372195976773
 30
0.0
 11
183.5970073030870537
 21
-3.7052372195976488
 31
0.0
  0
LINE
  5
126
100
AcDbEntity
100
AcDbLine
  8
1-NGraph
 62
256
370
-1
  6
ByLayer
 10
193.2116199827562184
 20
27.545662338466272
 30
0.0
 11
166.7883250249267917
 21
37.4544751423261957
 31
0.0
  0
LINE
  5
127
100
AcDbEntity
100
AcDbLine
  8
1-NGraph
 62
256
370
-1
  6
ByLayer
 10
182.6925982080520043
 20
68.2685367238319571
 30
0.0
 11
197.3074193261984135
 21
31.7314567008241397
 31
0.0
  0
CIRCLE
  5
128
100
AcDbEntity
100
AcDbCircle
  8
1-NGraph
 62
256
370
-1
  6
ByLayer
 10
200.0
 20
25.0
 30
0.0
 40
7.25
  0
CIRCLE
  5
129
100
AcDbEntity
100
AcDbCircle
  8
1-NGraph
 62
256
370
-1
  6
ByLayer
 10
130.0
 20
150.0
 30
0.0
 40
7.25
  0
CIRCLE
  5
12A
100
AcDbEntity
100
AcDbCircle
  8
1-NGraph
 62
256
370
-1
  6
ByLayer
 10
140.0
 20
-70.0
 30
0.0
 40
7.25
  0
CIRCLE
  5
12B
100
AcDbEntity
100
AcDbCircle
  8
1-NGraph
 62
256
370
-1
  6
ByLayer
 10
159.9997155749006197
 20
-40.0004266376490492
 30
0.0
 40
7.25
  0
CIRCLE
  5
12C
100
AcDbEntity
100
AcDbCircle
  8
1-NGraph
 62
256
370
-1
  6
ByLayer
 10
114.9999989626024757
 20
-39.9999987551229665
 30
0.0
 40
7.25
  0
CIRCLE
  5
12D
100
AcDbEntity
100
AcDbCircle
  8
1-NGraph
 62
256
370
-1
  6
ByLayer
 10
135.0
 20
-10.0
 30
0.0
 40
7.25
  0
CIRCLE
  5
12E
100
AcDbEntity
100
AcDbCircle
  8
1-NGraph
 62
256
370
-1
  6
ByLayer
 10
50.0
 20
80.0
 30
0.0
 40
7.25
  0
CIRCLE
  5
12F
100
AcDbEntity
100
AcDbCircle
  8
1-NGraph
 62
256
370
-1
  6
ByLayer
 10
130.0
 20
150.0
 30
0.0
 40
7.25
  0
LINE
  5
130
100
AcDbEntity
100
AcDbLine
  8
1-NGraph
 62
256
370
-1
  6
ByLayer
 10
234.4303957229190303
 20
-55.3586631024325229
 30
0.0
 11
185.5696042770808845
 21
-14.6413368975674132
 31
0.0
  0
LINE
  5
131
100
AcDbEntity
100
AcDbLine
  8
1-NGraph
 62
256
370
-1
  6
ByLayer
 10
177.3074175964327424
 20
-3.2685439910818692
 30
0.0
 11
162.6925274112502677
 21
33.2686814718743733
 31
0.0
  0
LINE
  5
132
100
AcDbEntity
100
AcDbLine
  8
1-NGraph
 62
256
370
-1
  6
ByLayer
 10
177.3074175964327424
 20
-3.2685439910818701
 30
0.0
 11
162.6925274112502393
 21
33.2686814718743875
 31
0.0
  0
LINE
  5
133
100
AcDbEntity
100
AcDbLine
  8
1-NGraph
 62
256
370
-1
  6
ByLayer
 10
142.25
 20
-10.0
 30
0.0
 11
172.75
 21
-10.0
 31
0.0
  0
LINE
  5
134
100
AcDbEntity
100
AcDbLine
  8
1-NGraph
 62
256
370
-1
  6
ByLayer
 10
142.25
 20
-10.0
 30
0.0
 11
172.75
 21
-10.0
 31
0.0
  0
LINE
  5
135
100
AcDbEntity
100
AcDbLine
  8
1-NGraph
 62
256
370
-1
  6
ByLayer
 10
175.9784235773670957
 20
-16.0323646339493635
 30
0.0
 11
164.021291997533524
 21
-33.9680620036996856
 31
0.0
  0
LINE
  5
136
100
AcDbEntity
100
AcDbLine
  8
1-NGraph
 62
256
370
-1
  6
ByLayer
 10
175.9784235773670957
 20
-16.0323646339493671
 30
0.0
 11
164.0212919975335524
 21
-33.9680620036996856
 31
0.0
  0
CIRCLE
  5
137
100
AcDbEntity
100
AcDbCircle
  8
1-NGraph
 62
256
370
-1
  6
ByLayer
 10
180.0
 20
-10.0
 30
0.0
 40
7.25
  0
CIRCLE
  5
138
100
AcDbEntity
100
AcDbCircle
  8
1-NGraph
 62
256
370
-1
  6
ByLayer
 10
159.9997155749006197
 20
-40.0004266376490492
 30
0.0
 40
7.25
  0
CIRCLE
  5
139
100
AcDbEntity
100
AcDbCircle
  8
1-NGraph
 62
256
370
-1
  6
ByLayer
 10
135.0
 20
-10.0
 30
0.0
 40
7.25
  0
CIRCLE
  5
13A
100
AcDbEntity
100
AcDbCircle
  8
1-NGraph
 62
256
370
-1
  6
ByLayer
 10
114.9999989626024757
 20
-39.9999987551229665
 30
0.0
 40
7.25
  0
CIRCLE
  5
13B
100
AcDbEntity
100
AcDbCircle
  8
1-NGraph
 62
256
370
-1
  6
ByLayer
 10
90.0
 20
-10.0
 30
0.0
 40
7.25
  0
LINE
  5
13C
100
AcDbEntity
100
AcDbLine
  8
1-NGraph
 62
256
370
-1
  6
ByLayer
 10
97.25
 20
-10.0
 30
0.0
 11
127.75
 21
-10.0
 31
0.0
  0
LINE
  5
13D
100
AcDbEntity
100
AcDbLine
  8
1-NGraph
 62
256
370
-1
  6
ByLayer
 10
55.4561810366248622
 20
84.7741584070467553
 30
0.0
 11
124.5438189633751307
 21
145.2258415929532589
 31
0.0
  0
LINE
  5
13E
100
AcDbEntity
100
AcDbLine
  8
1-NGraph
 62
256
370
-1
  6
ByLayer
 10
3.8424923150230548
 20
6.147987704036888
 30
0.0
 11
46.1575076849770198
 21
73.8520122959632204
 31
0.0
  0
LINE
  5
13F
100
AcDbEntity
100
AcDbLine
  8
1-NGraph
 62
256
370
-1
  6
ByLayer
 10
82.79434292361627
 20
-9.199371435957362
 30
0.0
 11
7.2056570763837584
 21
-0.8006285640426398
 31
0.0
  0
LINE
  5
140
100
AcDbEntity
100
AcDbLine
  8
1-NGraph
 62
256
370
-1
  6
ByLayer
 10
4.7182374575557713
 20
-5.5046103671484001
 30
0.0
 11
55.2817625424442269
 21
-64.4953896328515981
 31
0.0
  0
LINE
  5
141
100
AcDbEntity
100
AcDbLine
  8
1-NGraph
 62
256
370
-1
  6
ByLayer
 10
131.191892657963848
 20
142.8486440522169687
 30
0.0
 11
138.808107342036152
 21
97.1513559477830313
 31
0.0
  0
LINE
  5
142
100
AcDbEntity
100
AcDbLine
  8
1-NGraph
 62
256
370
-1
  6
ByLayer
 10
136.6638014676309183
 20
147.1440850853010431
 30
0.0
 11
193.3361985323691954
 21
122.8559149146989142
 31
0.0
  0
LINE
  5
143
100
AcDbEntity
100
AcDbLine
  8
1-NGraph
 62
256
370
-1
  6
ByLayer
 10
102.4808890160708756
 20
85.8312098906745433
 30
0.0
 11
132.7943429236165116
 21
89.1993714359573886
 31
0.0
  0
LINE
  5
144
100
AcDbEntity
100
AcDbLine
  8
1-NGraph
 62
256
370
-1
  6
ByLayer
 10
132.7943429236162558
 20
89.1993714359573602
 30
0.0
 11
102.4808890160709183
 21
85.8312098906745575
 31
0.0
  0
LINE
  5
145
100
AcDbEntity
100
AcDbLine
  8
1-NGraph
 62
256
370
-1
  6
ByLayer
 10
93.2422985673746894
 20
-3.5154028652506106
 30
0.0
 11
111.7577906237844161
 21
33.5155812475688037
 31
0.0
  0
LINE
  5
146
100
AcDbEntity
100
AcDbLine
  8
1-NGraph
 62
256
370
-1
  6
ByLayer
 10
132.3074362290774673
 20
-3.2685365380538922
 30
0.0
 11
117.6926529620816382
 21
33.2687149203720764
 31
0.0
  0
LINE
  5
147
100
AcDbEntity
100
AcDbLine
  8
1-NGraph
 62
256
370
-1
  6
ByLayer
 10
111.7577906237844161
 20
33.5155812475688109
 30
0.0
 11
93.2422985673746751
 21
-3.5154028652506497
 31
0.0
  0
LINE
  5
148
100
AcDbEntity
100
AcDbLine
  8
1-NGraph
 62
256
370
-1
  6
ByLayer
 10
118.2423877585337948
 20
46.4847755170675967
 30
0.0
 11
136.7577014326253106
 21
83.5154028652506213
 31
0.0
  0
LINE
  5
149
100
AcDbEntity
100
AcDbLine
  8
1-NGraph
 62
256
370
-1
  6
ByLayer
 10
122.2500891911561069
 20
40.0001717926068281
 30
0.0
 11
152.7499450076860228
 21
40.0001440705038291
 31
0.0
  0
LINE
  5
14A
100
AcDbEntity
100
AcDbLine
  8
1-NGraph
 62
256
370
-1
  6
ByLayer
 10
136.7577014326253106
 20
83.5154028652506071
 30
0.0
 11
118.2423877585337948
 21
46.4847755170675754
 31
0.0
  0
LINE
  5
14B
100
AcDbEntity
100
AcDbLine
  8
1-NGraph
 62
256
370
-1
  6
ByLayer
 10
97.25
 20
-10.0
 30
0.0
 11
127.75
 21
-10.0
 31
0.0
  0
LINE
  5
14C
100
AcDbEntity
100
AcDbLine
  8
1-NGraph
 62
256
370
-1
  6
ByLayer
 10
110.3586620650349914
 20
-34.4303944780419897
 30
0.0
 11
94.64133689756747
 21
-15.5696042770809697
 31
0.0
  0
LINE
  5
14D
100
AcDbEntity
100
AcDbLine
  8
1-NGraph
 62
256
370
-1
  6
ByLayer
 10
110.3586620650350056
 20
-34.4303944780420039
 30
0.0
 11
94.64133689756747
 21
-15.5696042770809697
 31
0.0
  0
LINE
  5
14E
100
AcDbEntity
100
AcDbLine
  8
1-NGraph
 62
256
370
-1
  6
ByLayer
 10
86.7577014326253106
 20
-16.4845971347493894
 30
0.0
 11
63.2422985673747391
 21
-63.5154028652505218
 31
0.0
  0
LINE
  5
14F
100
AcDbEntity
100
AcDbLine
  8
1-NGraph
 62
256
370
-1
  6
ByLayer
 10
67.25
 20
-70.0
 30
0.0
 11
132.75
 21
-70.0
 31
0.0
  0
LINE
  5
150
100
AcDbEntity
100
AcDbLine
  8
1-NGraph
 62
256
370
-1
  6
ByLayer
 10
156.7576592780008582
 20
33.5155339272127222
 30
0.0
 11
138.2422857296822087
 21
-3.5153964464201763
 31
0.0
  0
LINE
  5
151
100
AcDbEntity
100
AcDbLine
  8
1-NGraph
 62
256
370
-1
  6
ByLayer
 10
139.6412667799993415
 20
-15.5696627076398872
 30
0.0
 11
155.3584487949012782
 21
-34.4307639300091637
 31
0.0
  0
LINE
  5
152
100
AcDbEntity
100
AcDbLine
  8
1-NGraph
 62
256
370
-1
  6
ByLayer
 10
119.0215756451814286
 20
-33.9676342944709688
 30
0.0
 11
130.9784233174210613
 21
-16.0323644606520013
 31
0.0
  0
LINE
  5
153
100
AcDbEntity
100
AcDbLine
  8
1-NGraph
 62
256
370
-1
  6
ByLayer
 10
135.35866310243253
 20
-64.4303957229190303
 30
0.0
 11
119.6413358601699457
 21
-45.5696030322039363
 31
0.0
  0
LINE
  5
154
100
AcDbEntity
100
AcDbLine
  8
1-NGraph
 62
256
370
-1
  6
ByLayer
 10
152.7497155752283788
 20
-40.0003577005857167
 30
0.0
 11
122.2499989622747592
 21
-40.000067692186299
 31
0.0
  0
LINE
  5
155
100
AcDbEntity
100
AcDbLine
  8
1-NGraph
 62
256
370
-1
  6
ByLayer
 10
135.35866310243253
 20
-64.4303957229190303
 30
0.0
 11
119.6413358601699457
 21
-45.5696030322039363
 31
0.0
  0
LINE
  5
156
100
AcDbEntity
100
AcDbLine
  8
1-NGraph
 62
256
370
-1
  6
ByLayer
 10
155.9781391522677154
 20
-46.0327912715984411
 30
0.0
 11
144.0215764226329043
 21
-63.9676353660506365
 31
0.0
  0
LINE
  5
157
100
AcDbEntity
100
AcDbLine
  8
1-NGraph
 62
256
370
-1
  6
ByLayer
 10
155.9781391522677154
 20
-46.0327912715984127
 30
0.0
 11
144.0215764226329043
 21
-63.9676353660506152
 31
0.0
  0
LINE
  5
158
100
AcDbEntity
100
AcDbLine
  8
1-NGraph
 62
256
370
-1
  6
ByLayer
 10
147.214019629022431
 20
-69.2785980370977512
 30
0.0
 11
232.7859803709775974
 21
-60.7214019629022417
 31
0.0
  0
LINE
  5
159
100
AcDbEntity
100
AcDbLine
  8
1-NGraph
 62
256
370
-1
  6
ByLayer
 10
221.191892657963848
 20
52.8486440522169545
 30
0.0
 11
238.808107342036152
 21
-52.848644052216855
 31
0.0
  0
LINE
  5
15A
100
AcDbEntity
100
AcDbLine
  8
1-NGraph
 62
256
370
-1
  6
ByLayer
 10
163.5969733045182579
 20
46.2948882647208393
 30
0.0
 11
176.4029892374151984
 21
68.7052426407277324
 31
0.0
  0
LINE
  5
15B
100
AcDbEntity
100
AcDbLine
  8
1-NGraph
 62
256
370
-1
  6
ByLayer
 10
157.3073626041157809
 20
46.7315934897106047
 30
0.0
 11
142.6925824035672861
 21
83.268543991081799
 31
0.0
  0
LINE
  5
15C
100
AcDbEntity
100
AcDbLine
  8
1-NGraph
 62
256
370
-1
  6
ByLayer
 10
157.3073626041157809
 20
46.7315934897105478
 30
0.0
 11
142.6925824035672576
 21
83.2685439910818701
 31
0.0
  0
LINE
  5
15D
100
AcDbEntity
100
AcDbLine
  8
1-NGraph
 62
256
370
-1
  6
ByLayer
 10
146.4845971347493787
 20
93.2422985673746894
 30
0.0
 11
193.515402865250536
 21
116.757701432625268
 31
0.0
  0
LINE
  5
15E
100
AcDbEntity
100
AcDbLine
  8
1-NGraph
 62
256
370
-1
  6
ByLayer
 10
146.7883865373755725
 20
87.4543550484841603
 30
0.0
 11
173.2116309968748169
 21
77.5456383761719508
 31
0.0
  0
LINE
  5
15F
100
AcDbEntity
100
AcDbLine
  8
1-NGraph
 62
256
370
-1
  6
ByLayer
 10
146.7883865373755725
 20
87.4543550484841603
 30
0.0
 11
173.2116309968748169
 21
77.5456383761719508
 31
0.0
  0
LINE
  5
160
100
AcDbEntity
100
AcDbLine
  8
1-NGraph
 62
256
370
-1
  6
ByLayer
 10
186.7884040716259904
 20
72.4543484731402572
 30
0.0
 11
213.2116134626243991
 21
62.5456449515158539
 31
0.0
  0
LINE
  5
161
100
AcDbEntity
100
AcDbLine
  8
1-NGraph
 62
256
370
-1
  6
ByLayer
 10
186.7884040716259904
 20
72.4543484731402572
 30
0.0
 11
213.2116134626243138
 21
62.5456449515158823
 31
0.0
  0
LINE
  5
162
100
AcDbEntity
100
AcDbLine
  8
1-NGraph
 62
256
370
-1
  6
ByLayer
 10
202.2926513036220797
 20
113.1220460891337751
 30
0.0
 11
217.7073486963779203
 21
66.8779539108662249
 31
0.0
  0
CIRCLE
  5
163
100
AcDbEntity
100
AcDbCircle
  8
1-NGraph
 62
256
370
-1
  6
ByLayer
 10
240.0
 20
-60.0
 30
0.0
 40
7.25
  0
CIRCLE
  5
164
100
AcDbEntity
100
AcDbCircle
  8
1-NGraph
 62
256
370
-1
  6
ByLayer
 10
159.9999450076830385
 20
40.0001374807924819
 30
0.0
 40
7.25
  0
CIRCLE
  5
165
100
AcDbEntity
100
AcDbCircle
  8
1-NGraph
 62
256
370
-1
  6
ByLayer
 10
200.0
 20
120.0
 30
0.0
 40
7.25
  0
CIRCLE
  5
166
100
AcDbEntity
100
AcDbCircle
  8
1-NGraph
 62
256
370
-1
  6
ByLayer
 10
0.0
 20
0.0
 30
0.0
 40
7.25
  0
HATCH
  5
167
  8
1-NGraph Part 2
 62
256
370
-1
  6
ByLayer
100
AcDbEntity
100
AcDbHatch
 10
0.0
 20
0.0
 30
0.0
210
0.0
220
0.0
230
1.0
  2
SOLID
 70
1
 71
0
 91
1
 92
1
 93
1
 72
2
 10
200.0
 20
25.0
 40
7.25
 50
0.0
 51
360.0
 73
1
 97
0
 75
0
 76
1
 98
0
  0
HATCH
  5
168
  8
1-NGraph Part 1
 62
256
370
-1
  6
ByLayer
100
AcDbEntity
100
AcDbHatch
 10
0.0
 20
0.0
 30
0.0
210
0.0
220
0.0
230
1.0
  2
SOLID
 70
1
 71
0
 91
1
 92
1
 93
1
 72
2
 10
70.0
 20
35.0
 40
7.25
 50
0.0
 51
360.0
 73
1
 97
0
 75
0
 76
1
 98
0
  0
HATCH
  5
169
  8
0-UGrid DG Part2
 62
256
370
-1
  6
ByLayer
100
AcDbEntity
100
AcDbHatch
 10
0.0
 20
0.0
 30
0.0
210
0.0
220
0.0
230
1.0
  2
SOLID
 70
1
 71
0
 91
1
 92
1
 93
6
 72
1
 10
140.0
 20
90.0
 11
90.0
 21
-10.0
 72
1
 10
90.0
 20
-10.0
 11
60.0
 21
-70.0
 72
1
 10
60.0
 20
-70.0
 11
140.0
 21
-70.0
 72
1
 10
140.0
 20
-70.0
 11
240.0
 21
-60.0
 72
1
 10
240.0
 20
-60.0
 11
220.0
 21
60.0
 72
1
 10
220.0
 20
60.0
 11
140.0
 21
90.0
 97
0
 75
0
 76
1
 98
0
  0
HATCH
  5
16A
  8
0-UGrid DG Part1
 62
256
370
-1
  6
ByLayer
100
AcDbEntity
100
AcDbHatch
 10
0.0
 20
0.0
 30
0.0
210
0.0
220
0.0
230
1.0
  2
SOLID
 70
1
 71
0
 91
1
 92
1
 93
8
 72
1
 10
0.0
 20
0.0
 11
50.0
 21
80.0
 72
1
 10
50.0
 20
80.0
 11
130.0
 21
150.0
 72
1
 10
130.0
 20
150.0
 11
200.0
 21
120.0
 72
1
 10
200.0
 20
120.0
 11
220.0
 21
60.0
 72
1
 10
220.0
 20
60.0
 11
140.0
 21
90.0
 72
1
 10
140.0
 20
90.0
 11
90.0
 21
-10.0
 72
1
 10
90.0
 20
-10.0
 11
60.0
 21
-70.0
 72
1
 10
60.0
 20
-70.0
 11
0.0
 21
0.0
 97
0
 75
0
 76
1
 98
0
  0
HATCH
  5
16B
  8
1-NGraph Part1 Elements
 62
256
370
-1
  6
ByLayer
100
AcDbEntity
100
AcDbHatch
 10
0.0
 20
0.0
 30
0.0
210
0.0
220
0.0
230
1.0
  2
SOLID
 70
1
 71
0
 91
1
 92
1
 93
8
 72
1
 10
0.0
 20
0.0
 11
50.0
 21
80.0
 72
1
 10
50.0
 20
80.0
 11
130.0
 21
150.0
 72
1
 10
130.0
 20
150.0
 11
200.0
 21
120.0
 72
1
 10
200.0
 20
120.0
 11
140.0
 21
90.0
 72
1
 10
140.0
 20
90.0
 11
115.0000891911591054
 21
40.0001783823182038
 72
1
 10
115.0000891911591054
 20
40.0001783823182038
 11
90.0
 21
-10.0
 72
1
 10
90.0
 20
-10.0
 11
60.0
 21
-70.0
 72
1
 10
60.0
 20
-70.0
 11
0.0
 21
0.0
 97
0
 75
0
 76
1
 98
0
  0
HATCH
  5
16C
  8
1-NGraph Part2 Elements
 62
256
370
-1
  6
ByLayer
100
AcDbEntity
100
AcDbHatch
 10
0.0
 20
0.0
 30
0.0
210
0.0
220
0.0
230
1.0
  2
SOLID
 70
1
 71
0
 91
1
 92
1
 93
7
 72
1
 10
140.0
 20
-70.0
 11
240.0
 21
-60.0
 72
1
 10
240.0
 20
-60.0
 11
220.0
 21
60.0
 72
1
 10
220.0
 20
60.0
 11
180.0000175342504178
 21
74.9999934246560969
 72
1
 10
180.0000175342504178
 20
74.9999934246560827
 11
159.9999450076830101
 21
40.0001374807924535
 72
1
 10
159.9999450076830101
 20
40.0001374807924535
 11
135.0
 21
-10.0
 72
1
 10
135.0
 20
-10.0
 11
114.9999989626024757
 21
-39.9999987551229665
 72
1
 10
114.9999989626024757
 20
-39.9999987551229736
 11
140.0
 21
-70.0
 97
0
 75
0
 76
1
 98
0
  0
HATCH
  5
16D
  8
1-UGrid DG Part2 Ghost2OverlapElems
 62
256
370
-1
  6
ByLayer
100
AcDbEntity
100
AcDbHatch
 10
0.0
 20
0.0
 30
0.0
210
0.0
220
0.0
230
1.0
  2
SOLID
 70
1
 71
0
 91
1
 92
1
 93
4
 72
1
 10
90.0
 20
-10.0
 11
60.0
 21
-70.0
 72
1
 10
60.0
 20
-70.0
 11
140.0
 21
-70.0
 72
1
 10
140.0
 20
-70.0
 11
114.9999989626024757
 21
-39.9999987551229736
 72
1
 10
114.9999989626024757
 20
-39.9999987551229736
 11
90.0
 21
-10.0
 97
0
 75
0
 76
1
 98
0
  0
HATCH
  5
16E
  8
1-UGrid DG Part2 Ghost2OverlapElems
 62
256
370
-1
  6
ByLayer
100
AcDbEntity
100
AcDbHatch
 10
0.0
 20
0.0
 30
0.0
210
0.0
220
0.0
230
1.0
  2
SOLID
 70
1
 71
0
 91
1
 92
1
 93
3
 72
1
 10
114.9999989626024757
 20
-39.9999987551229665
 11
135.0
 21
-10.0
 72
1
 10
135.0
 20
-10.0
 11
90.0
 21
-10.0
 72
1
 10
90.0
 20
-10.0
 11
114.9999989626024757
 21
-39.9999987551229736
 97
0
 75
0
 76
1
 98
0
  0
HATCH
  5
16F
  8
1-UGrid DG Part2 Ghost2OverlapElems
 62
256
370
-1
  6
ByLayer
100
AcDbEntity
100
AcDbHatch
 10
0.0
 20
0.0
 30
0.0
210
0.0
220
0.0
230
1.0
  2
SOLID
 70
1
 71
0
 91
1
 92
1
 93
3
 72
1
 10
115.0000891911591054
 20
40.0001783823182038
 11
68.2762309724051448
 21
38.8784803120884277
 72
1
 10
68.2762309724051448
 20
38.8784803120884348
 11
90.0
 21
-10.0
 72
1
 10
90.0
 20
-10.0
 11
115.0000891911591054
 21
40.0001783823182038
 97
0
 75
0
 76
1
 98
0
  0
HATCH
  5
170
  8
1-UGrid DG Part2 Ghost2OverlapElems
 62
256
370
-1
  6
ByLayer
100
AcDbEntity
100
AcDbHatch
 10
0.0
 20
0.0
 30
0.0
210
0.0
220
0.0
230
1.0
  2
SOLID
 70
1
 71
0
 91
1
 92
1
 93
3
 72
1
 10
115.0000891911591054
 20
40.0001783823182038
 11
68.2762309724051448
 21
38.8784803120884277
 72
1
 10
68.2762309724051448
 20
38.8784803120884277
 11
95.2752319396871599
 21
85.0305813266319035
 72
1
 10
95.2752319396871599
 20
85.0305813266319035
 11
115.0000891911591054
 21
40.0001783823182038
 97
0
 75
0
 76
1
 98
0
  0
HATCH
  5
171
  8
1-UGrid DG Part2 Ghost2OverlapElems
 62
256
370
-1
  6
ByLayer
100
AcDbEntity
100
AcDbHatch
 10
0.0
 20
0.0
 30
0.0
210
0.0
220
0.0
230
1.0
  2
SOLID
 70
1
 71
0
 91
1
 92
1
 93
3
 72
1
 10
68.2762309724051448
 20
38.8784803120884277
 11
95.2752319396871599
 21
85.0305813266319035
 72
1
 10
95.2752319396871599
 20
85.0305813266319177
 11
50.0
 21
80.0
 72
1
 10
50.0
 20
80.0
 11
68.2762309724051448
 21
38.8784803120884348
 97
0
 75
0
 76
1
 98
0
  0
HATCH
  5
172
  8
1-UGrid DG Part2 OverlapElems Example
 62
256
370
-1
  6
ByLayer
100
AcDbEntity
100
AcDbHatch
 10
0.0
 20
0.0
 30
0.0
210
0.0
220
0.0
230
1.0
  2
SOLID
 70
1
 71
0
 91
1
 92
1
 93
4
 72
1
 10
50.0
 20
80.0
 11
130.0
 21
150.0
 72
1
 10
130.0
 20
150.0
 11
140.0
 21
90.0
 72
1
 10
140.0
 20
90.0
 11
95.2752319396871599
 21
85.0305813266319177
 72
1
 10
95.2752319396871599
 20
85.0305813266319177
 11
50.0
 21
80.0
 97
0
 75
0
 76
1
 98
0
  0
HATCH
  5
173
  8
1-UGrid DG Part2 OverlapElems Example
 62
256
370
-1
  6
ByLayer
100
AcDbEntity
100
AcDbHatch
 10
0.0
 20
0.0
 30
0.0
210
0.0
220
0.0
230
1.0
  2
SOLID
 70
1
 71
0
 91
1
 92
1
 93
3
 72
1
 10
95.2752319396871599
 20
85.0305813266319035
 11
115.0000891911591054
 21
40.0001783823182038
 72
1
 10
115.0000891911591054
 20
40.0001783823182038
 11
140.0
 21
90.0
 72
1
 10
140.0
 20
90.0
 11
95.2752319396871599
 21
85.0305813266319177
 97
0
 75
0
 76
1
 98
0
  0
HATCH
  5
174
  8
1-UGrid DG Part2 GhostElems
 62
256
370
-1
  6
ByLayer
100
AcDbEntity
100
AcDbHatch
 10
0.0
 20
0.0
 30
0.0
210
0.0
220
0.0
230
1.0
  2
SOLID
 70
1
 71
0
 91
1
 92
1
 93
3
 72
1
 10
159.9997155749006481
 20
-40.0004266376490492
 11
114.9999989626024757
 21
-39.9999987551229665
 72
1
 10
114.9999989626024757
 20
-39.9999987551229736
 11
140.0
 21
-70.0
 72
1
 10
140.0
 20
-70.0
 11
159.9997155749006197
 21
-40.0004266376490492
 97
0
 75
0
 76
1
 98
0
  0
HATCH
  5
175
  8
1-UGrid DG Part2 GhostElems
 62
256
370
-1
  6
ByLayer
100
AcDbEntity
100
AcDbHatch
 10
0.0
 20
0.0
 30
0.0
210
0.0
220
0.0
230
1.0
  2
SOLID
 70
1
 71
0
 91
1
 92
1
 93
3
 72
1
 10
114.9999989626024757
 20
-39.9999987551229665
 11
135.0
 21
-10.0
 72
1
 10
134.9999999999999716
 20
-10.0000000000000249
 11
159.9997155749006197
 21
-40.0004266376490492
 72
1
 10
159.9997155749006481
 20
-40.0004266376490492
 11
114.9999989626024757
 21
-39.9999987551229665
 97
0
 75
0
 76
1
 98
0
  0
HATCH
  5
176
  8
1-UGrid DG Part2 GhostElems
 62
256
370
-1
  6
ByLayer
100
AcDbEntity
100
AcDbHatch
 10
0.0
 20
0.0
 30
0.0
210
0.0
220
0.0
230
1.0
  2
SOLID
 70
1
 71
0
 91
1
 92
1
 93
3
 72
1
 10
135.0
 20
-10.0
 11
115.0000891911591054
 21
40.0001783823182038
 72
1
 10
115.0000891911591054
 20
40.0001783823182038
 11
90.0
 21
-10.0
 72
1
 10
90.0
 20
-10.0
 11
135.0
 21
-10.0
 97
0
 75
0
 76
1
 98
0
  0
HATCH
  5
177
  8
1-UGrid DG Part2 GhostElems
 62
256
370
-1
  6
ByLayer
100
AcDbEntity
100
AcDbHatch
 10
0.0
 20
0.0
 30
0.0
210
0.0
220
0.0
230
1.0
  2
SOLID
 70
1
 71
0
 91
1
 92
1
 93
3
 72
1
 10
95.2752319396871599
 20
85.0305813266319035
 11
115.0000891911591054
 21
40.0001783823182038
 72
1
 10
115.0000891911591054
 20
40.0001783823182038
 11
140.0
 21
90.0
 72
1
 10
140.0
 20
90.0
 11
95.2752319396871599
 21
85.0305813266319177
 97
0
 75
0
 76
1
 98
0
  0
HATCH
  5
178
  8
1-UGrid DG Part2 GhostElems
 62
256
370
-1
  6
ByLayer
100
AcDbEntity
100
AcDbHatch
 10
0.0
 20
0.0
 30
0.0
210
0.0
220
0.0
230
1.0
  2
SOLID
 70
1
 71
0
 91
1
 92
1
 93
4
 72
1
 10
50.0
 20
80.0
 11
130.0
 21
150.0
 72
1
 10
130.0
 20
150.0
 11
140.0
 21
90.0
 72
1
 10
140.0
 20
90.0
 11
95.2752319396871599
 21
85.0305813266319177
 72
1
 10
95.2752319396871599
 20
85.0305813266319177
 11
50.0
 21
80.0
 97
0
 75
0
 76
1
 98
0
  0
HATCH
  5
179
  8
1-UGrid DG InitPart2
 62
256
370
-1
  6
ByLayer
100
AcDbEntity
100
AcDbHatch
 10
0.0
 20
0.0
 30
0.0
210
0.0
220
0.0
230
1.0
  2
SOLID
 70
1
 71
0
 91
1
 92
1
 93
6
 72
1
 10
50.0
 20
80.0
 11
140.0
 21
90.0
 72
1
 10
140.0
 20
90.0
 11
220.0
 21
60.0
 72
1
 10
220.0
 20
60.0
 11
180.0
 21
-10.0
 72
1
 10
180.0
 20
-10.0
 11
90.0
 21
-10.0
 72
1
 10
90.0
 20
-10.0
 11
68.2762309724051448
 21
38.8784803120884348
 72
1
 10
68.2762309724051448
 20
38.8784803120884348
 11
50.0
 21
80.0
 97
0
 75
0
 76
1
 98
0
  0
HATCH
  5
17A
  8
1-UGrid DG InitPart1
 62
256
370
-1
  6
ByLayer
100
AcDbEntity
100
AcDbHatch
 10
0.0
 20
0.0
 30
0.0
210
0.0
220
0.0
230
1.0
  2
SOLID
 70
1
 71
0
 91
1
 92
1
 93
8
 72
1
 10
0.0
 20
0.0
 11
50.0
 21
80.0
 72
1
 10
50.0
 20
80.0
 11
90.0
 21
-10.0
 72
1
 10
90.0
 20
-10.0
 11
180.0
 21
-10.0
 72
1
 10
180.0
 20
-10.0
 11
220.0
 21
60.0
 72
1
 10
220.0
 20
60.0
 11
240.0
 21
-60.0
 72
1
 10
240.0
 20
-60.0
 11
140.0
 21
-70.0
 72
1
 10
140.0
 20
-70.0
 11
60.0
 21
-70.0
 72
1
 10
60.0
 20
-70.0
 11
0.0
 21
0.0
 97
0
 75
0
 76
1
 98
0
  0
HATCH
  5
17B
  8
1-UGrid DG InitPart1
 62
256
370
-1
  6
ByLayer
100
AcDbEntity
100
AcDbHatch
 10
0.0
 20
0.0
 30
0.0
210
0.0
220
0.0
230
1.0
  2
SOLID
 70
1
 71
0
 91
1
 92
1
 93
7
 72
1
 10
50.0
 20
80.0
 11
130.0
 21
150.0
 72
1
 10
130.0
 20
150.0
 11
200.0
 21
120.0
 72
1
 10
200.0
 20
120.0
 11
220.0
 21
60.0
 72
1
 10
220.0
 20
60.0
 11
180.0000175342504178
 21
74.9999934246560969
 72
1
 10
180.0000175342504178
 20
74.9999934246560969
 11
140.0
 21
90.0
 72
1
 10
140.0
 20
90.0
 11
95.2752319396871599
 21
85.0305813266319177
 72
1
 10
95.2752319396871599
 20
85.0305813266319177
 11
50.0
 21
80.0
 97
0
 75
0
 76
1
 98
0
  0
HATCH
  5
17C
  8
1-DGraph InitPart2
 62
256
370
-1
  6
ByLayer
100
AcDbEntity
100
AcDbHatch
 10
0.0
 20
0.0
 30
0.0
210
0.0
220
0.0
230
1.0
  2
SOLID
 70
1
 71
0
 91
1
 92
1
 93
10
 72
2
 10
181.2827542701893435
 20
18.9985228384989568
 40
7.2874765306784965
 50
0.0
 51
360.0
 73
1
 72
2
 10
113.7549283045438813
 20
7.6683506966121229
 40
7.2874765306784965
 50
0.0
 51
360.0
 73
1
 72
2
 10
91.0945840207701991
 20
22.6241779239027494
 40
7.2874765306784965
 50
0.0
 51
360.0
 73
1
 72
2
 10
179.4699267274874614
 20
48.4569704074047252
 40
7.2874765306784965
 50
0.0
 51
360.0
 73
1
 72
2
 10
202.1302710112611294
 20
53.8954530355103998
 40
7.2874765306784965
 50
0.0
 51
360.0
 73
1
 72
2
 10
158.1692031007402761
 20
6.7619369252611818
 40
7.2874765306784965
 50
0.0
 51
360.0
 73
1
 72
2
 10
136.4152725883175776
 20
23.5305916952536904
 40
7.2874765306784965
 50
0.0
 51
360.0
 73
1
 72
2
 10
138.2281001310194597
 20
55.255073692536854
 40
7.2874765306784965
 50
0.0
 51
360.0
 73
1
 72
2
 10
162.2480650718194397
 20
67.4916596057746005
 40
7.2874765306784965
 50
0.0
 51
360.0
 73
1
 72
2
 10
115.5677558472457633
 20
71.5705215768539063
 40
7.2874765306784965
 50
0.0
 51
360.0
 73
1
 97
0
 75
0
 76
1
 98
0
  0
HATCH
  5
17D
  8
1-DGraph InitPart2
 62
256
370
-1
  6
ByLayer
100
AcDbEntity
100
AcDbHatch
 10
0.0
 20
0.0
 30
0.0
210
0.0
220
0.0
230
1.0
  2
SOLID
 70
1
 71
0
 91
1
 92
1
 93
2
 72
2
 10
94.2670322204983933
 20
55.8350883152182789
 40
7.2874765306784965
 50
0.0
 51
360.0
 73
1
 72
2
 10
70.2470672796984132
 20
67.9448664914501137
 40
7.2874765306784965
 50
0.0
 51
360.0
 73
1
 97
0
 75
0
 76
1
 98
0
  0
HATCH
  5
17E
  8
1-DGraph InitPart1
 62
256
370
-1
  6
ByLayer
100
AcDbEntity
100
AcDbHatch
 10
0.0
 20
0.0
 30
0.0
210
0.0
220
0.0
230
1.0
  2
SOLID
 70
1
 71
0
 91
1
 92
1
 93
1
 72
2
 10
136.4152725883174639
 20
-29.0414070431012306
 40
7.2874765306784965
 50
0.0
 51
360.0
 73
1
 97
0
 75
0
 76
1
 98
0
  0
HATCH
  5
17F
  8
1-DGraph InitPart1
 62
256
370
-1
  6
ByLayer
100
AcDbEntity
100
AcDbHatch
 10
0.0
 20
0.0
 30
0.0
210
0.0
220
0.0
230
1.0
  2
SOLID
 70
1
 71
0
 91
1
 92
1
 93
1
 72
2
 10
158.1692031007402193
 20
-21.3368899866181749
 40
7.2874765306784965
 50
0.0
 51
360.0
 73
1
 97
0
 75
0
 76
1
 98
0
  0
HATCH
  5
180
  8
1-DGraph InitPart1
 62
256
370
-1
  6
ByLayer
100
AcDbEntity
100
AcDbHatch
 10
0.0
 20
0.0
 30
0.0
210
0.0
220
0.0
230
1.0
  2
SOLID
 70
1
 71
0
 91
1
 92
1
 93
1
 72
2
 10
138.6813070166948307
 20
-51.2485444411994138
 40
7.2874765306784965
 50
0.0
 51
360.0
 73
1
 97
0
 75
0
 76
1
 98
0
  0
HATCH
  5
181
  8
1-DGraph InitPart1
 62
256
370
-1
  6
ByLayer
100
AcDbEntity
100
AcDbHatch
 10
0.0
 20
0.0
 30
0.0
210
0.0
220
0.0
230
1.0
  2
SOLID
 70
1
 71
0
 91
1
 92
1
 93
1
 72
2
 10
114.2081351902192807
 20
-21.3368899866181749
 40
7.2874765306784965
 50
0.0
 51
360.0
 73
1
 97
0
 75
0
 76
1
 98
0
  0
HATCH
  5
182
  8
1-DGraph InitPart1
 62
256
370
-1
  6
ByLayer
100
AcDbEntity
100
AcDbHatch
 10
0.0
 20
0.0
 30
0.0
210
0.0
220
0.0
230
1.0
  2
SOLID
 70
1
 71
0
 91
1
 92
1
 93
1
 72
2
 10
46.6803092245737332
 20
22.624177923902721
 40
7.2874765306784965
 50
0.0
 51
360.0
 73
1
 97
0
 75
0
 76
1
 98
0
  0
HATCH
  5
183
  8
1-DGraph InitPart1
 62
256
370
-1
  6
ByLayer
100
AcDbEntity
100
AcDbHatch
 10
0.0
 20
0.0
 30
0.0
210
0.0
220
0.0
230
1.0
  2
SOLID
 70
1
 71
0
 91
1
 92
1
 93
1
 72
2
 10
110.1292732191399608
 20
106.9206586595407487
 40
7.2874765306784965
 50
0.0
 51
360.0
 73
1
 97
0
 75
0
 76
1
 98
0
  0
HATCH
  5
184
  8
1-DGraph InitPart1
 62
256
370
-1
  6
ByLayer
100
AcDbEntity
100
AcDbHatch
 10
0.0
 20
0.0
 30
0.0
210
0.0
220
0.0
230
1.0
  2
SOLID
 70
1
 71
0
 91
1
 92
1
 93
1
 72
2
 10
155.9031686723627672
 20
118.7040376871030105
 40
7.2874765306784965
 50
0.0
 51
360.0
 73
1
 97
0
 75
0
 76
1
 98
0
  0
HATCH
  5
185
  8
1-DGraph InitPart1
 62
256
370
-1
  6
ByLayer
100
AcDbEntity
100
AcDbHatch
 10
0.0
 20
0.0
 30
0.0
210
0.0
220
0.0
230
1.0
  2
SOLID
 70
1
 71
0
 91
1
 92
1
 93
1
 72
2
 10
188.5340644409968149
 20
91.0584176608991527
 40
7.2874765306784965
 50
0.0
 51
360.0
 73
1
 97
0
 75
0
 76
1
 98
0
  0
HATCH
  5
186
  8
1-DGraph InitPart1
 62
256
370
-1
  6
ByLayer
100
AcDbEntity
100
AcDbHatch
 10
0.0
 20
0.0
 30
0.0
210
0.0
220
0.0
230
1.0
  2
SOLID
 70
1
 71
0
 91
1
 92
1
 93
1
 72
2
 10
209.8347880677440287
 20
-2.3022007882482916
 40
7.2874765306784965
 50
0.0
 51
360.0
 73
1
 97
0
 75
0
 76
1
 98
0
  0
HATCH
  5
187
  8
1-DGraph InitPart1
 62
256
370
-1
  6
ByLayer
100
AcDbEntity
100
AcDbHatch
 10
0.0
 20
0.0
 30
0.0
210
0.0
220
0.0
230
1.0
  2
SOLID
 70
1
 71
0
 91
1
 92
1
 93
1
 72
2
 10
185.3616162412685071
 20
-43.544027384716351
 40
7.2874765306784965
 50
0.0
 51
360.0
 73
1
 97
0
 75
0
 76
1
 98
0
  0
HATCH
  5
188
  8
1-DGraph InitPart1
 62
256
370
-1
  6
ByLayer
100
AcDbEntity
100
AcDbHatch
 10
0.0
 20
0.0
 30
0.0
210
0.0
220
0.0
230
1.0
  2
SOLID
 70
1
 71
0
 91
1
 92
1
 93
1
 72
2
 10
95.6266528775248332
 20
-47.6228893557956141
 40
7.2874765306784965
 50
0.0
 51
360.0
 73
1
 97
0
 75
0
 76
1
 98
0
  0
HATCH
  5
189
  8
1-DGraph InitPart1
 62
256
370
-1
  6
ByLayer
100
AcDbEntity
100
AcDbHatch
 10
0.0
 20
0.0
 30
0.0
210
0.0
220
0.0
230
1.0
  2
SOLID
 70
1
 71
0
 91
1
 92
1
 93
1
 72
2
 10
52.5719987383548784
 20
-28.134993271750254
 40
7.2874765306784965
 50
0.0
 51
360.0
 73
1
 97
0
 75
0
 76
1
 98
0
  0
HATCH
  5
18A
  8
1-UGrid NGraph Part1
 62
256
370
-1
  6
ByLayer
100
AcDbEntity
100
AcDbHatch
 10
0.0
 20
0.0
 30
0.0
210
0.0
220
0.0
230
1.0
  2
SOLID
 70
1
 71
0
 91
1
 92
1
 93
8
 72
1
 10
0.0
 20
0.0
 11
50.0
 21
80.0
 72
1
 10
50.0
 20
80.0
 11
130.0
 21
150.0
 72
1
 10
130.0
 20
150.0
 11
200.0
 21
120.0
 72
1
 10
200.0
 20
120.0
 11
140.0
 21
90.0
 72
1
 10
140.0
 20
90.0
 11
115.0000891911591054
 21
40.0001783823182038
 72
1
 10
115.0000891911591054
 20
40.0001783823181967
 11
90.0
 21
-10.0
 72
1
 10
90.0
 20
-10.0
 11
60.0
 21
-70.0
 72
1
 10
60.0
 20
-70.0
 11
0.0
 21
0.0
 97
0
 75
0
 76
1
 98
0
  0
HATCH
  5
18B
  8
1-UGrid NGraph Part2
 62
256
370
-1
  6
ByLayer
100
AcDbEntity
100
AcDbHatch
 10
0.0
 20
0.0
 30
0.0
210
0.0
220
0.0
230
1.0
  2
SOLID
 70
1
 71
0
 91
1
 92
1
 93
7
 72
1
 10
140.0
 20
-70.0
 11
240.0
 21
-60.0
 72
1
 10
240.0
 20
-60.0
 11
220.0
 21
60.0
 72
1
 10
220.0
 20
60.0
 11
180.0000175342504178
 21
74.9999934246560969
 72
1
 10
180.0000175342504178
 20
74.9999934246560827
 11
159.9999450076830101
 21
40.0001374807924535
 72
1
 10
159.9999450076830101
 20
40.0001374807924535
 11
135.0
 21
-10.0
 72
1
 10
135.0
 20
-10.0
 11
114.9999989626024757
 21
-39.9999987551229665
 72
1
 10
114.9999989626024757
 20
-39.9999987551229736
 11
140.0
 21
-70.0
 97
0
 75
0
 76
1
 98
0
  0
HATCH
  5
18C
  8
1-DGraph Part2
 62
256
370
-1
  6
ByLayer
100
AcDbEntity
100
AcDbHatch
 10
0.0
 20
0.0
 30
0.0
210
0.0
220
0.0
230
1.0
  2
SOLID
 70
1
 71
0
 91
1
 92
1
 93
1
 72
2
 10
155.9031686723627672
 20
118.7040376871030105
 40
7.2874765306784965
 50
0.0
 51
360.0
 73
1
 97
0
 75
0
 76
1
 98
0
  0
HATCH
  5
18D
  8
1-DGraph Part2
 62
256
370
-1
  6
ByLayer
100
AcDbEntity
100
AcDbHatch
 10
0.0
 20
0.0
 30
0.0
210
0.0
220
0.0
230
1.0
  2
SOLID
 70
1
 71
0
 91
1
 92
1
 93
1
 72
2
 10
188.5340644409968149
 20
91.0584176608991527
 40
7.2874765306784965
 50
0.0
 51
360.0
 73
1
 97
0
 75
0
 76
1
 98
0
  0
HATCH
  5
18E
  8
1-DGraph Part2
 62
256
370
-1
  6
ByLayer
100
AcDbEntity
100
AcDbHatch
 10
0.0
 20
0.0
 30
0.0
210
0.0
220
0.0
230
1.0
  2
SOLID
 70
1
 71
0
 91
1
 92
1
 93
1
 72
2
 10
162.2480650718194397
 20
67.4916596057746005
 40
7.2874765306784965
 50
0.0
 51
360.0
 73
1
 97
0
 75
0
 76
1
 98
0
  0
HATCH
  5
18F
  8
1-DGraph Part2
 62
256
370
-1
  6
ByLayer
100
AcDbEntity
100
AcDbHatch
 10
0.0
 20
0.0
 30
0.0
210
0.0
220
0.0
230
1.0
  2
SOLID
 70
1
 71
0
 91
1
 92
1
 93
1
 72
2
 10
202.1302710112611294
 20
53.8954530355103998
 40
7.2874765306784965
 50
0.0
 51
360.0
 73
1
 97
0
 75
0
 76
1
 98
0
  0
HATCH
  5
190
  8
1-DGraph Part2
 62
256
370
-1
  6
ByLayer
100
AcDbEntity
100
AcDbHatch
 10
0.0
 20
0.0
 30
0.0
210
0.0
220
0.0
230
1.0
  2
SOLID
 70
1
 71
0
 91
1
 92
1
 93
1
 72
2
 10
179.4699267274874614
 20
48.4569704074047252
 40
7.2874765306784965
 50
0.0
 51
360.0
 73
1
 97
0
 75
0
 76
1
 98
0
  0
HATCH
  5
191
  8
1-DGraph Part2
 62
256
370
-1
  6
ByLayer
100
AcDbEntity
100
AcDbHatch
 10
0.0
 20
0.0
 30
0.0
210
0.0
220
0.0
230
1.0
  2
SOLID
 70
1
 71
0
 91
1
 92
1
 93
1
 72
2
 10
138.2281001310194597
 20
55.255073692536854
 40
7.2874765306784965
 50
0.0
 51
360.0
 73
1
 97
0
 75
0
 76
1
 98
0
  0
HATCH
  5
192
  8
1-DGraph Part2
 62
256
370
-1
  6
ByLayer
100
AcDbEntity
100
AcDbHatch
 10
0.0
 20
0.0
 30
0.0
210
0.0
220
0.0
230
1.0
  2
SOLID
 70
1
 71
0
 91
1
 92
1
 93
1
 72
2
 10
136.4152725883175776
 20
23.5305916952536904
 40
7.2874765306784965
 50
0.0
 51
360.0
 73
1
 97
0
 75
0
 76
1
 98
0
  0
HATCH
  5
193
  8
1-DGraph Part2
 62
256
370
-1
  6
ByLayer
100
AcDbEntity
100
AcDbHatch
 10
0.0
 20
0.0
 30
0.0
210
0.0
220
0.0
230
1.0
  2
SOLID
 70
1
 71
0
 91
1
 92
1
 93
1
 72
2
 10
181.2827542701893435
 20
18.9985228384989568
 40
7.2874765306784965
 50
0.0
 51
360.0
 73
1
 97
0
 75
0
 76
1
 98
0
  0
HATCH
  5
194
  8
1-DGraph Part2
 62
256
370
-1
  6
ByLayer
100
AcDbEntity
100
AcDbHatch
 10
0.0
 20
0.0
 30
0.0
210
0.0
220
0.0
230
1.0
  2
SOLID
 70
1
 71
0
 91
1
 92
1
 93
1
 72
2
 10
158.1692031007402761
 20
6.7619369252611818
 40
7.2874765306784965
 50
0.0
 51
360.0
 73
1
 97
0
 75
0
 76
1
 98
0
  0
HATCH
  5
195
  8
1-DGraph Part2
 62
256
370
-1
  6
ByLayer
100
AcDbEntity
100
AcDbHatch
 10
0.0
 20
0.0
 30
0.0
210
0.0
220
0.0
230
1.0
  2
SOLID
 70
1
 71
0
 91
1
 92
1
 93
1
 72
2
 10
209.8347880677440287
 20
-2.3022007882482916
 40
7.2874765306784965
 50
0.0
 51
360.0
 73
1
 97
0
 75
0
 76
1
 98
0
  0
HATCH
  5
196
  8
1-DGraph Part2
 62
256
370
-1
  6
ByLayer
100
AcDbEntity
100
AcDbHatch
 10
0.0
 20
0.0
 30
0.0
210
0.0
220
0.0
230
1.0
  2
SOLID
 70
1
 71
0
 91
1
 92
1
 93
1
 72
2
 10
185.3616162412685071
 20
-43.544027384716351
 40
7.2874765306784965
 50
0.0
 51
360.0
 73
1
 97
0
 75
0
 76
1
 98
0
  0
HATCH
  5
197
  8
1-DGraph Part2
 62
256
370
-1
  6
ByLayer
100
AcDbEntity
100
AcDbHatch
 10
0.0
 20
0.0
 30
0.0
210
0.0
220
0.0
230
1.0
  2
SOLID
 70
1
 71
0
 91
1
 92
1
 93
1
 72
2
 10
158.1692031007402193
 20
-21.3368899866181749
 40
7.2874765306784965
 50
0.0
 51
360.0
 73
1
 97
0
 75
0
 76
1
 98
0
  0
HATCH
  5
198
  8
1-DGraph Part1
 62
256
370
-1
  6
ByLayer
100
AcDbEntity
100
AcDbHatch
 10
0.0
 20
0.0
 30
0.0
210
0.0
220
0.0
230
1.0
  2
SOLID
 70
1
 71
0
 91
1
 92
1
 93
1
 72
2
 10
110.1292732191399608
 20
106.9206586595407487
 40
7.2874765306784965
 50
0.0
 51
360.0
 73
1
 97
0
 75
0
 76
1
 98
0
  0
HATCH
  5
199
  8
1-DGraph Part1
 62
256
370
-1
  6
ByLayer
100
AcDbEntity
100
AcDbHatch
 10
0.0
 20
0.0
 30
0.0
210
0.0
220
0.0
230
1.0
  2
SOLID
 70
1
 71
0
 91
1
 92
1
 93
1
 72
2
 10
115.5677558472457633
 20
71.5705215768539063
 40
7.2874765306784965
 50
0.0
 51
360.0
 73
1
 97
0
 75
0
 76
1
 98
0
  0
HATCH
  5
19A
  8
1-DGraph Part1
 62
256
370
-1
  6
ByLayer
100
AcDbEntity
100
AcDbHatch
 10
0.0
 20
0.0
 30
0.0
210
0.0
220
0.0
230
1.0
  2
SOLID
 70
1
 71
0
 91
1
 92
1
 93
1
 72
2
 10
70.2470672796984132
 20
67.9448664914501137
 40
7.2874765306784965
 50
0.0
 51
360.0
 73
1
 97
0
 75
0
 76
1
 98
0
  0
HATCH
  5
19B
  8
1-DGraph Part1
 62
256
370
-1
  6
ByLayer
100
AcDbEntity
100
AcDbHatch
 10
0.0
 20
0.0
 30
0.0
210
0.0
220
0.0
230
1.0
  2
SOLID
 70
1
 71
0
 91
1
 92
1
 93
1
 72
2
 10
94.2670322204983933
 20
55.8350883152182789
 40
7.2874765306784965
 50
0.0
 51
360.0
 73
1
 97
0
 75
0
 76
1
 98
0
  0
HATCH
  5
19C
  8
1-DGraph Part1
 62
256
370
-1
  6
ByLayer
100
AcDbEntity
100
AcDbHatch
 10
0.0
 20
0.0
 30
0.0
210
0.0
220
0.0
230
1.0
  2
SOLID
 70
1
 71
0
 91
1
 92
1
 93
1
 72
2
 10
46.6803092245737332
 20
22.624177923902721
 40
7.2874765306784965
 50
0.0
 51
360.0
 73
1
 97
0
 75
0
 76
1
 98
0
  0
HATCH
  5
19D
  8
1-DGraph Part1
 62
256
370
-1
  6
ByLayer
100
AcDbEntity
100
AcDbHatch
 10
0.0
 20
0.0
 30
0.0
210
0.0
220
0.0
230
1.0
  2
SOLID
 70
1
 71
0
 91
1
 92
1
 93
1
 72
2
 10
91.0945840207701991
 20
22.6241779239027494
 40
7.2874765306784965
 50
0.0
 51
360.0
 73
1
 97
0
 75
0
 76
1
 98
0
  0
HATCH
  5
19E
  8
1-DGraph Part1
 62
256
370
-1
  6
ByLayer
100
AcDbEntity
100
AcDbHatch
 10
0.0
 20
0.0
 30
0.0
210
0.0
220
0.0
230
1.0
  2
SOLID
 70
1
 71
0
 91
1
 92
1
 93
1
 72
2
 10
113.7549283045438813
 20
7.6683506966121229
 40
7.2874765306784965
 50
0.0
 51
360.0
 73
1
 97
0
 75
0
 76
1
 98
0
  0
HATCH
  5
19F
  8
1-DGraph Part1
 62
256
370
-1
  6
ByLayer
100
AcDbEntity
100
AcDbHatch
 10
0.0
 20
0.0
 30
0.0
210
0.0
220
0.0
230
1.0
  2
SOLID
 70
1
 71
0
 91
1
 92
1
 93
1
 72
2
 10
114.2081351902192807
 20
-21.3368899866181749
 40
7.2874765306784965
 50
0.0
 51
360.0
 73
1
 97
0
 75
0
 76
1
 98
0
  0
HATCH
  5
1A0
  8
1-DGraph Part1
 62
256
370
-1
  6
ByLayer
100
AcDbEntity
100
AcDbHatch
 10
0.0
 20
0.0
 30
0.0
210
0.0
220
0.0
230
1.0
  2
SOLID
 70
1
 71
0
 91
1
 92
1
 93
1
 72
2
 10
136.4152725883174639
 20
-29.0414070431012306
 40
7.2874765306784965
 50
0.0
 51
360.0
 73
1
 97
0
 75
0
 76
1
 98
0
  0
HATCH
  5
1A1
  8
1-DGraph Part1
 62
256
370
-1
  6
ByLayer
100
AcDbEntity
100
AcDbHatch
 10
0.0
 20
0.0
 30
0.0
210
0.0
220
0.0
230
1.0
  2
SOLID
 70
1
 71
0
 91
1
 92
1
 93
1
 72
2
 10
138.6813070166948307
 20
-51.2485444411994138
 40
7.2874765306784965
 50
0.0
 51
360.0
 73
1
 97
0
 75
0
 76
1
 98
0
  0
HATCH
  5
1A2
  8
1-DGraph Part1
 62
256
370
-1
  6
ByLayer
100
AcDbEntity
100
AcDbHatch
 10
0.0
 20
0.0
 30
0.0
210
0.0
220
0.0
230
1.0
  2
SOLID
 70
1
 71
0
 91
1
 92
1
 93
1
 72
2
 10
95.6266528775248332
 20
-47.6228893557956141
 40
7.2874765306784965
 50
0.0
 51
360.0
 73
1
 97
0
 75
0
 76
1
 98
0
  0
HATCH
  5
1A3
  8
1-DGraph Part1
 62
256
370
-1
  6
ByLayer
100
AcDbEntity
100
AcDbHatch
 10
0.0
 20
0.0
 30
0.0
210
0.0
220
0.0
230
1.0
  2
SOLID
 70
1
 71
0
 91
1
 92
1
 93
1
 72
2
 10
52.5719987383548784
 20
-28.134993271750254
 40
7.2874765306784965
 50
0.0
 51
360.0
 73
1
 97
0
 75
0
 76
1
 98
0
  0
HATCH
  5
1A4
  8
1-NGraph Part 2
 62
256
370
-1
  6
ByLayer
100
AcDbEntity
100
AcDbHatch
 10
0.0
 20
0.0
 30
0.0
210
0.0
220
0.0
230
1.0
  2
SOLID
 70
1
 71
0
 91
1
 92
1
 93
1
 72
2
 10
140.0
 20
-70.0
 40
7.25
 50
0.0
 51
360.0
 73
1
 97
0
 75
0
 76
1
 98
0
  0
HATCH
  5
1A5
  8
1-NGraph Part 2
 62
256
370
-1
  6
ByLayer
100
AcDbEntity
100
AcDbHatch
 10
0.0
 20
0.0
 30
0.0
210
0.0
220
0.0
230
1.0
  2
SOLID
 70
1
 71
0
 91
1
 92
1
 93
1
 72
2
 10
159.9997155749006197
 20
-40.0004266376490492
 40
7.25
 50
0.0
 51
360.0
 73
1
 97
0
 75
0
 76
1
 98
0
  0
HATCH
  5
1A6
  8
1-NGraph Part 2
 62
256
370
-1
  6
ByLayer
100
AcDbEntity
100
AcDbHatch
 10
0.0
 20
0.0
 30
0.0
210
0.0
220
0.0
230
1.0
  2
SOLID
 70
1
 71
0
 91
1
 92
1
 93
1
 72
2
 10
114.9999989626024757
 20
-39.9999987551229665
 40
7.25
 50
0.0
 51
360.0
 73
1
 97
0
 75
0
 76
1
 98
0
  0
HATCH
  5
1A7
  8
1-NGraph Part 2
 62
256
370
-1
  6
ByLayer
100
AcDbEntity
100
AcDbHatch
 10
0.0
 20
0.0
 30
0.0
210
0.0
220
0.0
230
1.0
  2
SOLID
 70
1
 71
0
 91
1
 92
1
 93
1
 72
2
 10
240.0
 20
-60.0
 40
7.25
 50
0.0
 51
360.0
 73
1
 97
0
 75
0
 76
1
 98
0
  0
HATCH
  5
1A8
  8
1-NGraph Part 2
 62
256
370
-1
  6
ByLayer
100
AcDbEntity
100
AcDbHatch
 10
0.0
 20
0.0
 30
0.0
210
0.0
220
0.0
230
1.0
  2
SOLID
 70
1
 71
0
 91
1
 92
1
 93
1
 72
2
 10
180.0
 20
-10.0
 40
7.25
 50
0.0
 51
360.0
 73
1
 97
0
 75
0
 76
1
 98
0
  0
HATCH
  5
1A9
  8
1-NGraph Part 2
 62
256
370
-1
  6
ByLayer
100
AcDbEntity
100
AcDbHatch
 10
0.0
 20
0.0
 30
0.0
210
0.0
220
0.0
230
1.0
  2
SOLID
 70
1
 71
0
 91
1
 92
1
 93
1
 72
2
 10
135.0
 20
-10.0
 40
7.25
 50
0.0
 51
360.0
 73
1
 97
0
 75
0
 76
1
 98
0
  0
HATCH
  5
1AA
  8
1-NGraph Part 2
 62
256
370
-1
  6
ByLayer
100
AcDbEntity
100
AcDbHatch
 10
0.0
 20
0.0
 30
0.0
210
0.0
220
0.0
230
1.0
  2
SOLID
 70
1
 71
0
 91
1
 92
1
 93
1
 72
2
 10
159.9999450076830385
 20
40.0001374807924819
 40
7.25
 50
0.0
 51
360.0
 73
1
 97
0
 75
0
 76
1
 98
0
  0
HATCH
  5
1AB
  8
1-NGraph Part 2
 62
256
370
-1
  6
ByLayer
100
AcDbEntity
100
AcDbHatch
 10
0.0
 20
0.0
 30
0.0
210
0.0
220
0.0
230
1.0
  2
SOLID
 70
1
 71
0
 91
1
 92
1
 93
1
 72
2
 10
220.0
 20
60.0
 40
7.25
 50
0.0
 51
360.0
 73
1
 97
0
 75
0
 76
1
 98
0
  0
HATCH
  5
1AC
  8
1-NGraph Part 2
 62
256
370
-1
  6
ByLayer
100
AcDbEntity
100
AcDbHatch
 10
0.0
 20
0.0
 30
0.0
210
0.0
220
0.0
230
1.0
  2
SOLID
 70
1
 71
0
 91
1
 92
1
 93
1
 72
2
 10
180.0000175342504178
 20
74.9999934246560969
 40
7.25
 50
0.0
 51
360.0
 73
1
 97
0
 75
0
 76
1
 98
0
  0
HATCH
  5
1AD
  8
1-UGrid DG Part2
 62
256
370
25
  6
ByLayer
100
AcDbEntity
100
AcDbHatch
 10
0.0
 20
0.0
 30
0.0
210
0.0
220
0.0
230
1.0
  2
SOLID
 70
1
 71
0
 91
1
 92
1
 93
9
 72
1
 10
140.0
 20
-70.0
 11
240.0
 21
-60.0
 72
1
 10
240.0
 20
-60.0
 11
220.0
 21
60.0
 72
1
 10
220.0
 20
60.0
 11
200.0
 21
120.0
 72
1
 10
200.0
 20
120.0
 11
130.0
 21
150.0
 72
1
 10
130.0
 20
150.0
 11
140.0
 21
90.0
 72
1
 10
140.0
 20
90.0
 11
115.0000891911591054
 21
40.0001783823182038
 72
1
 10
115.0000891911591054
 20
40.0001783823182038
 11
135.0
 21
-10.0
 72
1
 10
135.0
 20
-10.0
 11
159.9997155749006481
 21
-40.0004266376490492
 72
1
 10
159.9997155749006197
 20
-40.0004266376490492
 11
140.0
 21
-70.0
 97
0
 75
0
 76
1
 98
0
  0
HATCH
  5
1AE
  8
1-NGraph Part 1
 62
256
370
-1
  6
ByLayer
100
AcDbEntity
100
AcDbHatch
 10
0.0
 20
0.0
 30
0.0
210
0.0
220
0.0
230
1.0
  2
SOLID
 70
1
 71
0
 91
1
 92
1
 93
1
 72
2
 10
200.0
 20
120.0
 40
7.25
 50
0.0
 51
360.0
 73
1
 97
0
 75
0
 76
1
 98
0
  0
HATCH
  5
1AF
  8
1-NGraph Part 1
 62
256
370
-1
  6
ByLayer
100
AcDbEntity
100
AcDbHatch
 10
0.0
 20
0.0
 30
0.0
210
0.0
220
0.0
230
1.0
  2
SOLID
 70
1
 71
0
 91
1
 92
1
 93
1
 72
2
 10
130.0
 20
150.0
 40
7.25
 50
0.0
 51
360.0
 73
1
 97
0
 75
0
 76
1
 98
0
  0
HATCH
  5
1B0
  8
1-NGraph Part 1
 62
256
370
-1
  6
ByLayer
100
AcDbEntity
100
AcDbHatch
 10
0.0
 20
0.0
 30
0.0
210
0.0
220
0.0
230
1.0
  2
SOLID
 70
1
 71
0
 91
1
 92
1
 93
1
 72
2
 10
140.0
 20
90.0
 40
7.25
 50
0.0
 51
360.0
 73
1
 97
0
 75
0
 76
1
 98
0
  0
HATCH
  5
1B1
  8
1-NGraph Part 1
 62
256
370
-1
  6
ByLayer
100
AcDbEntity
100
AcDbHatch
 10
0.0
 20
0.0
 30
0.0
210
0.0
220
0.0
230
1.0
  2
SOLID
 70
1
 71
0
 91
1
 92
1
 93
1
 72
2
 10
95.2752319396871599
 20
85.0305813266319035
 40
7.25
 50
0.0
 51
360.0
 73
1
 97
0
 75
0
 76
1
 98
0
  0
HATCH
  5
1B2
  8
1-NGraph Part 1
 62
256
370
-1
  6
ByLayer
100
AcDbEntity
100
AcDbHatch
 10
0.0
 20
0.0
 30
0.0
210
0.0
220
0.0
230
1.0
  2
SOLID
 70
1
 71
0
 91
1
 92
1
 93
1
 72
2
 10
115.0000891911591054
 20
40.0001783823182038
 40
7.25
 50
0.0
 51
360.0
 73
1
 97
0
 75
0
 76
1
 98
0
  0
HATCH
  5
1B3
  8
1-NGraph Part 1
 62
256
370
-1
  6
ByLayer
100
AcDbEntity
100
AcDbHatch
 10
0.0
 20
0.0
 30
0.0
210
0.0
220
0.0
230
1.0
  2
SOLID
 70
1
 71
0
 91
1
 92
1
 93
1
 72
2
 10
50.0
 20
80.0
 40
7.25
 50
0.0
 51
360.0
 73
1
 97
0
 75
0
 76
1
 98
0
  0
HATCH
  5
1B4
  8
1-NGraph Part 1
 62
256
370
-1
  6
ByLayer
100
AcDbEntity
100
AcDbHatch
 10
0.0
 20
0.0
 30
0.0
210
0.0
220
0.0
230
1.0
  2
SOLID
 70
1
 71
0
 91
1
 92
1
 93
1
 72
2
 10
90.0
 20
-10.0
 40
7.25
 50
0.0
 51
360.0
 73
1
 97
0
 75
0
 76
1
 98
0
  0
HATCH
  5
1B5
  8
1-NGraph Part 1
 62
256
370
-1
  6
ByLayer
100
AcDbEntity
100
AcDbHatch
 10
0.0
 20
0.0
 30
0.0
210
0.0
220
0.0
230
1.0
  2
SOLID
 70
1
 71
0
 91
1
 92
1
 93
1
 72
2
 10
60.0
 20
-70.0
 40
7.25
 50
0.0
 51
360.0
 73
1
 97
0
 75
0
 76
1
 98
0
  0
HATCH
  5
1B6
  8
1-NGraph Part 1
 62
256
370
-1
  6
ByLayer
100
AcDbEntity
100
AcDbHatch
 10
0.0
 20
0.0
 30
0.0
210
0.0
220
0.0
230
1.0
  2
SOLID
 70
1
 71
0
 91
1
 92
1
 93
1
 72
2
 10
0.0
 20
0.0
 40
7.25
 50
0.0
 51
360.0
 73
1
 97
0
 75
0
 76
1
 98
0
  0
HATCH
  5
1B7
  8
1-UGrid DG Part1
 62
256
370
-1
  6
ByLayer
100
AcDbEntity
100
AcDbHatch
 10
0.0
 20
0.0
 30
0.0
210
0.0
220
0.0
230
1.0
  2
SOLID
 70
1
 71
0
 91
1
 92
1
 93
9
 72
1
 10
0.0
 20
0.0
 11
50.0
 21
80.0
 72
1
 10
50.0
 20
80.0
 11
130.0
 21
150.0
 72
1
 10
130.0
 20
150.0
 11
140.0
 21
90.0
 72
1
 10
140.0
 20
90.0
 11
115.0000891911591054
 21
40.0001783823182038
 72
1
 10
115.0000891911591054
 20
40.0001783823182038
 11
135.0
 21
-10.0
 72
1
 10
135.0
 20
-10.0
 11
159.9997155749006481
 21
-40.0004266376490492
 72
1
 10
159.9997155749006197
 20
-40.0004266376490492
 11
140.0
 21
-70.0
 72
1
 10
140.0
 20
-70.0
 11
60.0
 21
-70.0
 72
1
 10
60.0
 20
-70.0
 11
0.0
 21
0.0
 97
0
 75
0
 76
1
 98
0
  0
LINE
  5
1B8
100
AcDbEntity
100
AcDbLine
  8
2
 62
256
370
-1
  6
ByLayer
 10
137.5000391911498241
 20
40.0001579315352487
 30
0.0
 11
127.5000445955795527
 21
65.0000891911591054
 31
0.0
  0
LINE
  5
1B9
100
AcDbEntity
100
AcDbLine
  8
2
 62
256
370
-1
  6
ByLayer
 10
127.5000445955795527
 20
65.0000891911591054
 30
0.0
 11
149.9999725038415193
 21
65.0000687403962303
 31
0.0
  0
LINE
  5
1BA
100
AcDbEntity
100
AcDbLine
  8
2
 62
256
370
-1
  6
ByLayer
 10
149.9999725038415193
 20
65.0000687403962303
 30
0.0
 11
137.5000391911498241
 21
40.0001579315352487
 31
0.0
  0
LINE
  5
1BB
100
AcDbEntity
100
AcDbLine
  8
2
 62
256
370
-1
  6
ByLayer
 10
125.000040987657556
 20
15.000098211036514
 30
0.0
 11
137.5000391911498241
 21
40.0001579315352558
 31
0.0
  0
LINE
  5
1BC
100
AcDbEntity
100
AcDbLine
  8
2
 62
256
370
-1
  6
ByLayer
 10
137.5000391911498241
 20
40.0001579315352558
 30
0.0
 11
147.4999729933480523
 21
15.0000697194141779
 31
0.0
  0
LINE
  5
1BD
100
AcDbEntity
100
AcDbLine
  8
2
 62
256
370
-1
  6
ByLayer
 10
147.4999729933480523
 20
15.0000697194141779
 30
0.0
 11
125.000040987657556
 21
15.0000982110365175
 31
0.0
  0
LINE
  5
1BE
100
AcDbEntity
100
AcDbLine
  8
2
 62
256
370
-1
  6
ByLayer
 10
102.5001337867386582
 20
15.0002675734773092
 30
0.0
 11
125.000040987657556
 21
15.000098211036514
 31
0.0
  0
LINE
  5
1BF
100
AcDbEntity
100
AcDbLine
  8
2
 62
256
370
-1
  6
ByLayer
 10
125.000040987657556
 20
15.000098211036514
 30
0.0
 11
112.5
 21
-10.0
 31
0.0
  0
LINE
  5
1C0
100
AcDbEntity
100
AcDbLine
  8
2
 62
256
370
-1
  6
ByLayer
 10
112.5
 20
-10.0
 30
0.0
 11
102.5001337867386582
 21
15.0002675734773092
 31
0.0
  0
LINE
  5
1C1
100
AcDbEntity
100
AcDbLine
  8
2
 62
256
370
-1
  6
ByLayer
 10
102.5001337867386582
 20
15.0002675734773092
 30
0.0
 11
115.0000891911591054
 21
40.0001783823181967
 31
0.0
  0
LINE
  5
1C2
100
AcDbEntity
100
AcDbLine
  8
2
 62
256
370
-1
  6
ByLayer
 10
115.0000891911591054
 20
40.0001783823181967
 30
0.0
 11
125.000040987657556
 21
15.0000982110365051
 31
0.0
  0
LINE
  5
1C3
100
AcDbEntity
100
AcDbLine
  8
2
 62
256
370
-1
  6
ByLayer
 10
125.000040987657556
 20
15.0000982110365051
 30
0.0
 11
135.0
 21
-10.0
 31
0.0
  0
LINE
  5
1C4
100
AcDbEntity
100
AcDbLine
  8
2
 62
256
370
-1
  6
ByLayer
 10
135.0
 20
-10.0
 30
0.0
 11
112.5
 21
-10.0000000000000071
 31
0.0
  0
LINE
  5
1C5
100
AcDbEntity
100
AcDbLine
  8
2
 62
256
370
-1
  6
ByLayer
 10
112.5
 20
-10.0000000000000071
 30
0.0
 11
90.0
 21
-10.0
 31
0.0
  0
LINE
  5
1C6
100
AcDbEntity
100
AcDbLine
  8
2
 62
256
370
-1
  6
ByLayer
 10
90.0
 20
-10.0
 30
0.0
 11
102.5001337867386582
 21
15.0002675734773092
 31
0.0
  0
LINE
  5
1C7
100
AcDbEntity
100
AcDbLine
  8
2
 62
256
370
-1
  6
ByLayer
 10
135.0
 20
-10.0
 30
0.0
 11
147.4999729933480523
 21
15.0000697194141779
 31
0.0
  0
LINE
  5
1C8
100
AcDbEntity
100
AcDbLine
  8
2
 62
256
370
-1
  6
ByLayer
 10
147.4999729933480523
 20
15.0000697194141779
 30
0.0
 11
159.9999450076830101
 21
40.0001374807924535
 31
0.0
  0
LINE
  5
1C9
100
AcDbEntity
100
AcDbLine
  8
2
 62
256
370
-1
  6
ByLayer
 10
159.9999450076830101
 20
40.0001374807924535
 30
0.0
 11
137.5000391911498241
 21
40.0001579315352487
 31
0.0
  0
LINE
  5
1CA
100
AcDbEntity
100
AcDbLine
  8
2
 62
256
370
-1
  6
ByLayer
 10
137.5000391911498241
 20
40.0001579315352487
 30
0.0
 11
115.0000891911591054
 21
40.0001783823182038
 31
0.0
  0
LINE
  5
1CB
100
AcDbEntity
100
AcDbLine
  8
2
 62
256
370
-1
  6
ByLayer
 10
115.0000891911591054
 20
40.0001783823182038
 30
0.0
 11
127.5000445955795527
 21
65.0000891911591054
 31
0.0
  0
LINE
  5
1CC
100
AcDbEntity
100
AcDbLine
  8
2
 62
256
370
-1
  6
ByLayer
 10
127.5000445955795527
 20
65.0000891911591054
 30
0.0
 11
140.0
 21
90.0
 31
0.0
  0
LINE
  5
1CD
100
AcDbEntity
100
AcDbLine
  8
2
 62
256
370
-1
  6
ByLayer
 10
140.0
 20
90.0
 30
0.0
 11
149.9999725038414908
 21
65.0000687403962303
 31
0.0
  0
LINE
  5
1CE
100
AcDbEntity
100
AcDbLine
  8
2
 62
256
370
-1
  6
ByLayer
 10
149.9999725038414908
 20
65.0000687403962303
 30
0.0
 11
159.9999450076830101
 21
40.0001374807924535
 31
0.0
  0
CIRCLE
  5
1CF
100
AcDbEntity
100
AcDbCircle
  8
1-DGraph
 62
256
370
-1
  6
ByLayer
 10
52.5719987383548784
 20
-28.134993271750254
 30
0.0
 40
7.2874765306784965
  0
CIRCLE
  5
1D0
100
AcDbEntity
100
AcDbCircle
  8
1-DGraph
 62
256
370
-1
  6
ByLayer
 10
181.2827542701893435
 20
18.9985228384989568
 30
0.0
 40
7.2874765306784965
  0
LINE
  5
1D1
100
AcDbEntity
100
AcDbLine
  8
1-DGraph
 62
256
370
-1
  6
ByLayer
 10
117.0663894873990358
 20
109.1530860527262945
 30
0.0
 11
148.7002692329466527
 21
117.5969903300089641
 31
0.0
  0
LINE
  5
1D2
100
AcDbEntity
100
AcDbLine
  8
1-DGraph
 62
256
370
-1
  6
ByLayer
 10
161.0733551532779018
 20
113.5682333744610162
 30
0.0
 11
183.575801274210761
 21
96.3991049344701025
 31
0.0
  0
LINE
  5
1D3
100
AcDbEntity
100
AcDbLine
  8
1-DGraph
 62
256
370
-1
  6
ByLayer
 10
111.4015211376070482
 20
99.7450960043097297
 30
0.0
 11
114.6096243571640798
 21
78.7947376750131951
 31
0.0
  0
LINE
  5
1D4
100
AcDbEntity
100
AcDbLine
  8
1-DGraph
 62
256
370
-1
  6
ByLayer
 10
104.7580067637884156
 20
101.9955382700674988
 30
0.0
 11
73.4966925114486571
 21
74.4676918024915011
 31
0.0
  0
LINE
  5
1D5
100
AcDbEntity
100
AcDbLine
  8
1-DGraph
 62
256
370
-1
  6
ByLayer
 10
76.1931188188140851
 20
63.7315797365080812
 30
0.0
 11
87.7164915187649541
 21
59.028476907313447
 31
0.0
  0
LINE
  5
1D6
100
AcDbEntity
100
AcDbLine
  8
1-DGraph
 62
256
370
-1
  6
ByLayer
 10
99.9946576622824495
 20
60.3408203294217245
 30
0.0
 11
109.7743838396840061
 21
67.1496444051616521
 31
0.0
  0
LINE
  5
1D7
100
AcDbEntity
100
AcDbLine
  8
1-DGraph
 62
256
370
-1
  6
ByLayer
 10
93.8672244689266648
 20
48.5585872366109896
 30
0.0
 11
91.9421374946896321
 21
29.8622002569739173
 31
0.0
  0
LINE
  5
1D8
100
AcDbEntity
100
AcDbLine
  8
1-DGraph
 62
256
370
-1
  6
ByLayer
 10
83.8177055517509757
 20
23.0170569540308065
 30
0.0
 11
53.9557632499493138
 21
22.2057488261619973
 31
0.0
  0
LINE
  5
1D9
100
AcDbEntity
100
AcDbLine
  8
1-DGraph
 62
256
370
-1
  6
ByLayer
 10
49.7188011688338634
 20
29.2479895825971461
 30
0.0
 11
66.5392470092963038
 21
61.6711608060050978
 31
0.0
  0
LINE
  5
1DA
100
AcDbEntity
100
AcDbLine
  8
1-DGraph
 62
256
370
-1
  6
ByLayer
 10
47.3738399774666519
 20
15.3697772401810333
 30
0.0
 11
51.2134059390515759
 21
-20.9752768115214607
 31
0.0
  0
LINE
  5
1DB
100
AcDbEntity
100
AcDbLine
  8
1-DGraph
 62
256
370
-1
  6
ByLayer
 10
59.1418092734212308
 20
-31.2885474124811616
 30
0.0
 11
89.0254225905666345
 21
-44.5356457820334768
 31
0.0
  0
LINE
  5
1DC
100
AcDbEntity
100
AcDbLine
  8
1-DGraph
 62
256
370
-1
  6
ByLayer
 10
102.82615361453243
 20
-48.7518283811716628
 30
0.0
 11
131.4457510050113456
 21
-52.1169011576361143
 31
0.0
  0
LINE
  5
1DD
100
AcDbEntity
100
AcDbLine
  8
1-DGraph
 62
256
370
-1
  6
ByLayer
 10
100.9400792490871197
 20
-42.6354236286776498
 30
0.0
 11
110.6217882398498631
 21
-27.6808185594164122
 31
0.0
  0
LINE
  5
1DE
100
AcDbEntity
100
AcDbLine
  8
1-DGraph
 62
256
370
-1
  6
ByLayer
 10
114.2081351902193518
 20
-14.0494134559396784
 30
0.0
 11
113.7549283045438671
 21
0.3808741659336263
 31
0.0
  0
LINE
  5
1DF
100
AcDbEntity
100
AcDbLine
  8
1-DGraph
 62
256
370
-1
  6
ByLayer
 10
107.3268652768313984
 20
11.101617347623332
 30
0.0
 11
96.4243139969763803
 21
17.6541384305064355
 31
0.0
  0
LINE
  5
1E0
100
AcDbEntity
100
AcDbLine
  8
1-DGraph
 62
256
370
-1
  6
ByLayer
 10
118.5132464992991288
 20
13.1879269613856334
 30
0.0
 11
130.0970234639306398
 21
19.8991949684592058
 31
0.0
  0
LINE
  5
1E1
100
AcDbEntity
100
AcDbLine
  8
1-DGraph
 62
256
370
-1
  6
ByLayer
 10
136.0855588401563239
 20
30.8106056395716124
 30
0.0
 11
137.8220691226858037
 21
47.9789172205070358
 31
0.0
  0
LINE
  5
1E2
100
AcDbEntity
100
AcDbLine
  8
1-DGraph
 62
256
370
-1
  6
ByLayer
 10
132.0621934632773105
 20
59.1395182023584027
 30
0.0
 11
121.3611278548075205
 21
67.1496444051616521
 31
0.0
  0
LINE
  5
1E3
100
AcDbEntity
100
AcDbLine
  8
1-DGraph
 62
256
370
-1
  6
ByLayer
 10
144.4965281535111501
 20
58.9718093990447585
 30
0.0
 11
155.7949987523801099
 21
64.1056222075600175
 31
0.0
  0
LINE
  5
1E4
100
AcDbEntity
100
AcDbLine
  8
1-DGraph
 62
256
370
-1
  6
ByLayer
 10
167.1546350932089524
 20
72.8798768258197924
 30
0.0
 11
183.5919051473148897
 21
85.7028247244388837
 31
0.0
  0
LINE
  5
1E5
100
AcDbEntity
100
AcDbLine
  8
1-DGraph
 62
256
370
-1
  6
ByLayer
 10
191.9777200706736835
 20
84.6359142479468005
 30
0.0
 11
199.5826106269433353
 21
60.7230983654442582
 31
0.0
  0
LINE
  5
1E6
100
AcDbEntity
100
AcDbLine
  8
1-DGraph
 62
256
370
-1
  6
ByLayer
 10
195.6772046918217995
 20
50.5094156372958167
 30
0.0
 11
186.7427469334054138
 21
48.9189232595242203
 31
0.0
  0
LINE
  5
1E7
100
AcDbEntity
100
AcDbLine
  8
1-DGraph
 62
256
370
-1
  6
ByLayer
 10
174.5263069457357687
 20
53.81121523171592
 30
0.0
 11
167.035383749864053
 21
61.997217499424309
 31
0.0
  0
LINE
  5
1E8
100
AcDbEntity
100
AcDbLine
  8
1-DGraph
 62
256
370
-1
  6
ByLayer
 10
179.8998733536512589
 20
41.1821879306676877
 30
0.0
 11
181.2827542701894288
 21
26.2859993691774534
 31
0.0
  0
LINE
  5
1E9
100
AcDbEntity
100
AcDbLine
  8
1-DGraph
 62
256
370
-1
  6
ByLayer
 10
175.0593242544883594
 20
15.2069225134565205
 30
0.0
 11
164.4644808926549047
 21
10.4330119323696628
 31
0.0
  0
LINE
  5
1EA
100
AcDbEntity
100
AcDbLine
  8
1-DGraph
 62
256
370
-1
  6
ByLayer
 10
152.1242734909995988
 20
10.832089280944011
 30
0.0
 11
141.7706840980021923
 21
18.58823580487838
 31
0.0
  0
LINE
  5
1EB
100
AcDbEntity
100
AcDbLine
  8
1-DGraph
 62
256
370
-1
  6
ByLayer
 10
157.3608962054955498
 20
-0.4805732851761988
 30
0.0
 11
158.1692031007402761
 21
-14.0494134559396784
 31
0.0
  0
LINE
  5
1EC
100
AcDbEntity
100
AcDbLine
  8
1-DGraph
 62
256
370
-1
  6
ByLayer
 10
151.7248965217239629
 20
-24.7395693574725435
 30
0.0
 11
143.4767985681490643
 21
-27.2408057487128161
 31
0.0
  0
LINE
  5
1ED
100
AcDbEntity
100
AcDbLine
  8
1-DGraph
 62
256
370
-1
  6
ByLayer
 10
129.5110029981215121
 20
-26.7093745366628212
 30
0.0
 11
120.8402730543294723
 21
-24.3571650629358594
 31
0.0
  0
LINE
  5
1EE
100
AcDbEntity
100
AcDbLine
  8
1-DGraph
 62
256
370
-1
  6
ByLayer
 10
137.3834732802219492
 20
-36.264280543681565
 30
0.0
 11
137.8337535427754688
 21
-44.0105221081282352
 31
0.0
  0
LINE
  5
1EF
100
AcDbEntity
100
AcDbLine
  8
1-DGraph
 62
256
370
-1
  6
ByLayer
 10
145.8374171398901069
 20
-49.8710822493799668
 30
0.0
 11
178.2862246910513022
 21
-45.2893493023879969
 31
0.0
  0
LINE
  5
1F0
100
AcDbEntity
100
AcDbLine
  8
1-DGraph
 62
256
370
-1
  6
ByLayer
 10
180.4179964595168428
 20
-38.1897825604051349
 30
0.0
 11
163.3369343428615252
 21
-26.4751647938266643
 31
0.0
  0
LINE
  5
1F1
100
AcDbEntity
100
AcDbLine
  8
1-DGraph
 62
256
370
-1
  6
ByLayer
 10
189.2810776738391496
 20
-37.4003203389840166
 30
0.0
 11
206.4546341387568589
 21
-8.758350848581653
 31
0.0
  0
LINE
  5
1F2
100
AcDbEntity
100
AcDbLine
  8
1-DGraph
 62
256
370
-1
  6
ByLayer
 10
203.8435861455147631
 20
1.8466320249976524
 30
0.0
 11
186.9211438584256371
 21
14.3816107712771277
 31
0.0
  0
LINE
  5
1F3
100
AcDbEntity
100
AcDbLine
  8
1-DGraph
 62
256
370
-1
  6
ByLayer
 10
208.969243761796406
 20
4.9336921932455304
 30
0.0
 11
203.7178530796088296
 21
46.7830063846418867
 31
0.0
  0
CIRCLE
  5
1F4
100
AcDbEntity
100
AcDbCircle
  8
1-DGraph
 62
256
370
-1
  6
ByLayer
 10
95.6266528775248332
 20
-47.6228893557956141
 30
0.0
 40
7.2874765306784965
  0
CIRCLE
  5
1F5
100
AcDbEntity
100
AcDbCircle
  8
1-DGraph
 62
256
370
-1
  6
ByLayer
 10
185.3616162412685071
 20
-43.544027384716351
 30
0.0
 40
7.2874765306784965
  0
CIRCLE
  5
1F6
100
AcDbEntity
100
AcDbCircle
  8
1-DGraph
 62
256
370
-1
  6
ByLayer
 10
209.8347880677440287
 20
-2.3022007882482916
 30
0.0
 40
7.2874765306784965
  0
CIRCLE
  5
1F7
100
AcDbEntity
100
AcDbCircle
  8
1-DGraph
 62
256
370
-1
  6
ByLayer
 10
136.4152725883174639
 20
-29.0414070431012306
 30
0.0
 40
7.2874765306784965
  0
CIRCLE
  5
1F8
100
AcDbEntity
100
AcDbCircle
  8
1-DGraph
 62
256
370
-1
  6
ByLayer
 10
138.6813070166948307
 20
-51.2485444411994138
 30
0.0
 40
7.2874765306784965
  0
CIRCLE
  5
1F9
100
AcDbEntity
100
AcDbCircle
  8
1-DGraph
 62
256
370
-1
  6
ByLayer
 10
158.1692031007402193
 20
-21.3368899866181749
 30
0.0
 40
7.2874765306784965
  0
CIRCLE
  5
1FA
100
AcDbEntity
100
AcDbCircle
  8
1-DGraph
 62
256
370
-1
  6
ByLayer
 10
114.2081351902192807
 20
-21.3368899866181749
 30
0.0
 40
7.2874765306784965
  0
CIRCLE
  5
1FB
100
AcDbEntity
100
AcDbCircle
  8
1-DGraph
 62
256
370
-1
  6
ByLayer
 10
113.7549283045438813
 20
7.6683506966121229
 30
0.0
 40
7.2874765306784965
  0
CIRCLE
  5
1FC
100
AcDbEntity
100
AcDbCircle
  8
1-DGraph
 62
256
370
-1
  6
ByLayer
 10
91.0945840207701991
 20
22.6241779239027494
 30
0.0
 40
7.2874765306784965
  0
CIRCLE
  5
1FD
100
AcDbEntity
100
AcDbCircle
  8
1-DGraph
 62
256
370
-1
  6
ByLayer
 10
181.2827542701893435
 20
18.9985228384989568
 30
0.0
 40
7.2874765306784965
  0
CIRCLE
  5
1FE
100
AcDbEntity
100
AcDbCircle
  8
1-DGraph
 62
256
370
-1
  6
ByLayer
 10
179.4699267274874614
 20
48.4569704074047252
 30
0.0
 40
7.2874765306784965
  0
CIRCLE
  5
1FF
100
AcDbEntity
100
AcDbCircle
  8
1-DGraph
 62
256
370
-1
  6
ByLayer
 10
202.1302710112611294
 20
53.8954530355103998
 30
0.0
 40
7.2874765306784965
  0
CIRCLE
  5
200
100
AcDbEntity
100
AcDbCircle
  8
1-DGraph
 62
256
370
-1
  6
ByLayer
 10
158.1692031007402761
 20
6.7619369252611818
 30
0.0
 40
7.2874765306784965
  0
CIRCLE
  5
201
100
AcDbEntity
100
AcDbCircle
  8
1-DGraph
 62
256
370
-1
  6
ByLayer
 10
136.4152725883175776
 20
23.5305916952536904
 30
0.0
 40
7.2874765306784965
  0
CIRCLE
  5
202
100
AcDbEntity
100
AcDbCircle
  8
1-DGraph
 62
256
370
-1
  6
ByLayer
 10
138.2281001310194597
 20
55.255073692536854
 30
0.0
 40
7.2874765306784965
  0
CIRCLE
  5
203
100
AcDbEntity
100
AcDbCircle
  8
1-DGraph
 62
256
370
-1
  6
ByLayer
 10
162.2480650718194397
 20
67.4916596057746005
 30
0.0
 40
7.2874765306784965
  0
CIRCLE
  5
204
100
AcDbEntity
100
AcDbCircle
  8
1-DGraph
 62
256
370
-1
  6
ByLayer
 10
188.5340644409968149
 20
91.0584176608991527
 30
0.0
 40
7.2874765306784965
  0
CIRCLE
  5
205
100
AcDbEntity
100
AcDbCircle
  8
1-DGraph
 62
256
370
-1
  6
ByLayer
 10
155.9031686723627672
 20
118.7040376871030105
 30
0.0
 40
7.2874765306784965
  0
CIRCLE
  5
206
100
AcDbEntity
100
AcDbCircle
  8
1-DGraph
 62
256
370
-1
  6
ByLayer
 10
110.1292732191399608
 20
106.9206586595407487
 30
0.0
 40
7.2874765306784965
  0
CIRCLE
  5
207
100
AcDbEntity
100
AcDbCircle
  8
1-DGraph
 62
256
370
-1
  6
ByLayer
 10
115.5677558472457633
 20
71.5705215768539063
 30
0.0
 40
7.2874765306784965
  0
CIRCLE
  5
208
100
AcDbEntity
100
AcDbCircle
  8
1-DGraph
 62
256
370
-1
  6
ByLayer
 10
94.2670322204983933
 20
55.8350883152182789
 30
0.0
 40
7.2874765306784965
  0
CIRCLE
  5
209
100
AcDbEntity
100
AcDbCircle
  8
1-DGraph
 62
256
370
-1
  6
ByLayer
 10
70.2470672796984132
 20
67.9448664914501137
 30
0.0
 40
7.2874765306784965
  0
CIRCLE
  5
20A
100
AcDbEntity
100
AcDbCircle
  8
1-DGraph
 62
256
370
-1
  6
ByLayer
 10
46.6803092245737332
 20
22.624177923902721
 30
0.0
 40
7.2874765306784965
  0
CIRCLE
  5
20B
100
AcDbEntity
100
AcDbCircle
  8
1-DGraph
 62
256
370
-1
  6
ByLayer
 10
138.2281001310194597
 20
55.255073692536854
 30
0.0
 40
7.2874765306784965
  0
CIRCLE
  5
20C
100
AcDbEntity
100
AcDbCircle
  8
1-DGraph
 62
256
370
-1
  6
ByLayer
 10
136.4152725883175776
 20
23.5305916952536904
 30
0.0
 40
7.2874765306784965
  0
CIRCLE
  5
20D
100
AcDbEntity
100
AcDbCircle
  8
1-DGraph
 62
256
370
-1
  6
ByLayer
 10
113.7549283045438813
 20
7.6683506966121229
 30
0.0
 40
7.2874765306784965
  0
CIRCLE
  5
20E
100
AcDbEntity
100
AcDbCircle
  8
1-DGraph
 62
256
370
-1
  6
ByLayer
 10
158.1692031007402761
 20
6.7619369252611818
 30
0.0
 40
7.2874765306784965
  0
LINE
  5
20F
100
AcDbEntity
100
AcDbLine
  8
0-UGrid
 62
256
370
-1
  6
ByLayer
 10
0.0
 20
0.0
 30
0.0
 11
50.0
 21
80.0
 31
0.0
  0
LINE
  5
210
100
AcDbEntity
100
AcDbLine
  8
0-UGrid
 62
256
370
-1
  6
ByLayer
 10
50.0
 20
80.0
 30
0.0
 11
90.0
 21
-10.0
 31
0.0
  0
LINE
  5
211
100
AcDbEntity
100
AcDbLine
  8
0-UGrid
 62
256
370
-1
  6
ByLayer
 10
90.0
 20
-10.0
 30
0.0
 11
0.0
 21
0.0
 31
0.0
  0
LINE
  5
212
100
AcDbEntity
100
AcDbLine
  8
0-UGrid
 62
256
370
-1
  6
ByLayer
 10
90.0
 20
-10.0
 30
0.0
 11
180.0
 21
-10.0
 31
0.0
  0
LINE
  5
213
100
AcDbEntity
100
AcDbLine
  8
0-UGrid
 62
256
370
-1
  6
ByLayer
 10
220.0
 20
60.0
 30
0.0
 11
180.0
 21
-10.0
 31
0.0
  0
LINE
  5
214
100
AcDbEntity
100
AcDbLine
  8
0-UGrid
 62
256
370
-1
  6
ByLayer
 10
180.0
 20
-10.0
 30
0.0
 11
140.0
 21
-70.0
 31
0.0
  0
LINE
  5
215
100
AcDbEntity
100
AcDbLine
  8
0-UGrid
 62
256
370
-1
  6
ByLayer
 10
140.0
 20
-70.0
 30
0.0
 11
90.0
 21
-10.0
 31
0.0
  0
LINE
  5
216
100
AcDbEntity
100
AcDbLine
  8
0-UGrid
 62
256
370
-1
  6
ByLayer
 10
90.0
 20
-10.0
 30
0.0
 11
60.0
 21
-70.0
 31
0.0
  0
LINE
  5
217
100
AcDbEntity
100
AcDbLine
  8
0-UGrid
 62
256
370
-1
  6
ByLayer
 10
60.0
 20
-70.0
 30
0.0
 11
140.0
 21
-70.0
 31
0.0
  0
LINE
  5
218
100
AcDbEntity
100
AcDbLine
  8
0-UGrid
 62
256
370
-1
  6
ByLayer
 10
0.0
 20
0.0
 30
0.0
 11
60.0
 21
-70.0
 31
0.0
  0
LINE
  5
219
100
AcDbEntity
100
AcDbLine
  8
0-UGrid
 62
256
370
-1
  6
ByLayer
 10
140.0
 20
-70.0
 30
0.0
 11
240.0
 21
-60.0
 31
0.0
  0
LINE
  5
21A
100
AcDbEntity
100
AcDbLine
  8
0-UGrid
 62
256
370
-1
  6
ByLayer
 10
240.0
 20
-60.0
 30
0.0
 11
180.0
 21
-10.0
 31
0.0
  0
LINE
  5
21B
100
AcDbEntity
100
AcDbLine
  8
0-UGrid
 62
256
370
-1
  6
ByLayer
 10
220.0
 20
60.0
 30
0.0
 11
240.0
 21
-60.0
 31
0.0
  0
LINE
  5
21C
100
AcDbEntity
100
AcDbLine
  8
0-UGrid
 62
256
370
-1
  6
ByLayer
 10
50.0
 20
80.0
 30
0.0
 11
130.0
 21
150.0
 31
0.0
  0
LINE
  5
21D
100
AcDbEntity
100
AcDbLine
  8
0-UGrid
 62
256
370
-1
  6
ByLayer
 10
130.0
 20
150.0
 30
0.0
 11
200.0
 21
120.0
 31
0.0
  0
LINE
  5
21E
100
AcDbEntity
100
AcDbLine
  8
0-UGrid
 62
256
370
-1
  6
ByLayer
 10
200.0
 20
120.0
 30
0.0
 11
220.0
 21
60.0
 31
0.0
  0
CIRCLE
  5
21F
100
AcDbEntity
100
AcDbCircle
  8
0-DGraph
 62
256
370
-1
  6
ByLayer
 10
52.5719987383548784
 20
-28.134993271750254
 30
0.0
 40
7.2874765306784965
  0
CIRCLE
  5
220
100
AcDbEntity
100
AcDbCircle
  8
0-DGraph
 62
256
370
-1
  6
ByLayer
 10
95.6266528775248332
 20
-47.6228893557956141
 30
0.0
 40
7.2874765306784965
  0
CIRCLE
  5
221
100
AcDbEntity
100
AcDbCircle
  8
0-DGraph
 62
256
370
-1
  6
ByLayer
 10
185.3616162412685071
 20
-43.544027384716351
 30
0.0
 40
7.2874765306784965
  0
CIRCLE
  5
222
100
AcDbEntity
100
AcDbCircle
  8
0-DGraph
 62
256
370
-1
  6
ByLayer
 10
209.8347880677440287
 20
-2.3022007882482916
 30
0.0
 40
7.2874765306784965
  0
CIRCLE
  5
223
100
AcDbEntity
100
AcDbCircle
  8
0-DGraph
 62
256
370
-1
  6
ByLayer
 10
136.4152725883174639
 20
-29.0414070431012306
 30
0.0
 40
7.2874765306784965
  0
CIRCLE
  5
224
100
AcDbEntity
100
AcDbCircle
  8
0-DGraph
 62
256
370
-1
  6
ByLayer
 10
179.4699267274874614
 20
48.4569704074047252
 30
0.0
 40
7.2874765306784965
  0
CIRCLE
  5
225
100
AcDbEntity
100
AcDbCircle
  8
0-DGraph
 62
256
370
-1
  6
ByLayer
 10
136.4152725883175776
 20
23.5305916952536904
 30
0.0
 40
7.2874765306784965
  0
CIRCLE
  5
226
100
AcDbEntity
100
AcDbCircle
  8
0-DGraph
 62
256
370
-1
  6
ByLayer
 10
188.5340644409968149
 20
91.0584176608991527
 30
0.0
 40
7.2874765306784965
  0
CIRCLE
  5
227
100
AcDbEntity
100
AcDbCircle
  8
0-DGraph
 62
256
370
-1
  6
ByLayer
 10
155.9031686723627672
 20
118.7040376871030105
 30
0.0
 40
7.2874765306784965
  0
CIRCLE
  5
228
100
AcDbEntity
100
AcDbCircle
  8
0-DGraph
 62
256
370
-1
  6
ByLayer
 10
110.1292732191399608
 20
106.9206586595407487
 30
0.0
 40
7.2874765306784965
  0
CIRCLE
  5
229
100
AcDbEntity
100
AcDbCircle
  8
0-DGraph
 62
256
370
-1
  6
ByLayer
 10
94.2670322204983933
 20
55.8350883152182789
 30
0.0
 40
7.2874765306784965
  0
CIRCLE
  5
22A
100
AcDbEntity
100
AcDbCircle
  8
0-DGraph
 62
256
370
-1
  6
ByLayer
 10
46.6803092245737332
 20
22.624177923902721
 30
0.0
 40
7.2874765306784965
  0
LINE
  5
22B
100
AcDbEntity
100
AcDbLine
  8
0-DGraph
 62
256
370
-1
  6
ByLayer
 10
116.9224286389353722
 20
109.5589068714597971
 30
0.0
 11
149.0725566084316824
 21
116.1643422295197325
 31
0.0
  0
LINE
  5
22C
100
AcDbEntity
100
AcDbLine
  8
0-DGraph
 62
256
370
-1
  6
ByLayer
 10
161.1561976051828822
 20
113.6529980697425799
 30
0.0
 11
183.0935634081621686
 21
95.9069496755315214
 31
0.0
  0
LINE
  5
22D
100
AcDbEntity
100
AcDbLine
  8
0-DGraph
 62
256
370
-1
  6
ByLayer
 10
186.6766076979713489
 20
84.0116333848637993
 30
0.0
 11
181.6498348866109041
 21
55.4107689810604924
 31
0.0
  0
LINE
  5
22E
100
AcDbEntity
100
AcDbLine
  8
0-DGraph
 62
256
370
-1
  6
ByLayer
 10
173.5676709696586784
 20
44.1825475043256759
 30
0.0
 11
142.893245413748275
 21
26.8687322342621044
 31
0.0
  0
LINE
  5
22F
100
AcDbEntity
100
AcDbLine
  8
0-DGraph
 62
256
370
-1
  6
ByLayer
 10
129.8819964583924218
 20
26.7591544088059727
 30
0.0
 11
99.4569941016231382
 21
50.719268746697324
 31
0.0
  0
LINE
  5
230
100
AcDbEntity
100
AcDbLine
  8
0-DGraph
 62
256
370
-1
  6
ByLayer
 10
96.7980774373386197
 20
62.6689104006621278
 30
0.0
 11
108.0352555588045362
 21
99.9405150920062511
 31
0.0
  0
LINE
  5
231
100
AcDbEntity
100
AcDbLine
  8
0-DGraph
 62
256
370
-1
  6
ByLayer
 10
88.3229909309385732
 20
51.618966005180539
 30
0.0
 11
52.9344629061442333
 21
26.3648831932988585
 31
0.0
  0
LINE
  5
232
100
AcDbEntity
100
AcDbLine
  8
0-DGraph
 62
256
370
-1
  6
ByLayer
 10
47.7009386051260691
 20
15.4085261963909748
 30
0.0
 11
51.6158010891128001
 21
-20.9105209560185479
 31
0.0
  0
LINE
  5
233
100
AcDbEntity
100
AcDbLine
  8
0-DGraph
 62
256
370
-1
  6
ByLayer
 10
58.891290414668795
 20
-31.7645754646285887
 30
0.0
 11
88.7931687907969405
 21
-45.0909317294466874
 31
0.0
  0
LINE
  5
234
100
AcDbEntity
100
AcDbLine
  8
0-DGraph
 62
256
370
-1
  6
ByLayer
 10
102.4209663878701235
 20
-44.9876250221225433
 30
0.0
 11
130.0249121618746244
 21
-32.5443497781945723
 31
0.0
  0
LINE
  5
235
100
AcDbEntity
100
AcDbLine
  8
0-DGraph
 62
256
370
-1
  6
ByLayer
 10
136.5341927063395246
 20
-21.7549008713671057
 30
0.0
 11
136.5664881169093974
 21
16.2446841986474766
 31
0.0
  0
LINE
  5
236
100
AcDbEntity
100
AcDbLine
  8
0-DGraph
 62
256
370
-1
  6
ByLayer
 10
143.1815100811218144
 20
-31.7479443837190303
 30
0.0
 11
178.3367605437638304
 21
-41.605286397780219
 31
0.0
  0
LINE
  5
237
100
AcDbEntity
100
AcDbLine
  8
0-DGraph
 62
256
370
-1
  6
ByLayer
 10
189.9953946806359966
 20
-37.91949082069236
 30
0.0
 11
206.3034992574559965
 21
-8.6769410593122434
 31
0.0
  0
LINE
  5
238
100
AcDbEntity
100
AcDbLine
  8
0-DGraph
 62
256
370
-1
  6
ByLayer
 10
206.3624939160768292
 20
4.1048646483995688
 30
0.0
 11
183.3135422971571415
 21
42.2655300630435917
 31
0.0
  0
CIRCLE
  5
239
100
AcDbEntity
100
AcDbCircle
  8
0-NGraph
 62
256
370
-1
  6
ByLayer
 10
0.0
 20
0.0
 30
0.0
 40
7.25
  0
CIRCLE
  5
23A
100
AcDbEntity
100
AcDbCircle
  8
0-NGraph
 62
256
370
-1
  6
ByLayer
 10
200.0
 20
120.0
 30
0.0
 40
7.25
  0
CIRCLE
  5
23B
100
AcDbEntity
100
AcDbCircle
  8
0-NGraph
 62
256
370
-1
  6
ByLayer
 10
130.0
 20
150.0
 30
0.0
 40
7.25
  0
CIRCLE
  5
23C
100
AcDbEntity
100
AcDbCircle
  8
0-NGraph
 62
256
370
-1
  6
ByLayer
 10
50.0
 20
80.0
 30
0.0
 40
7.25
  0
CIRCLE
  5
23D
100
AcDbEntity
100
AcDbCircle
  8
0-NGraph
 62
256
370
-1
  6
ByLayer
 10
140.0
 20
-70.0
 30
0.0
 40
7.25
  0
CIRCLE
  5
23E
100
AcDbEntity
100
AcDbCircle
  8
0-NGraph
 62
256
370
-1
  6
ByLayer
 10
240.0
 20
-60.0
 30
0.0
 40
7.25
  0
LINE
  5
23F
100
AcDbEntity
100
AcDbLine
  8
0-NGraph
 62
256
370
-1
  6
ByLayer
 10
202.2926513036220797
 20
113.1220460891337751
 30
0.0
 11
217.7073486963779203
 21
66.8779539108662249
 31
0.0
  0
LINE
  5
240
100
AcDbEntity
100
AcDbLine
  8
0-NGraph
 62
256
370
-1
  6
ByLayer
 10
146.7883865373755725
 20
87.4543550484841603
 30
0.0
 11
173.2116309968748169
 21
77.5456383761719508
 31
0.0
  0
LINE
  5
241
100
AcDbEntity
100
AcDbLine
  8
0-NGraph
 62
256
370
-1
  6
ByLayer
 10
146.4845971347493787
 20
93.2422985673746894
 30
0.0
 11
193.515402865250536
 21
116.757701432625268
 31
0.0
  0
LINE
  5
242
100
AcDbEntity
100
AcDbLine
  8
0-NGraph
 62
256
370
-1
  6
ByLayer
 10
221.191892657963848
 20
52.8486440522169545
 30
0.0
 11
238.808107342036152
 21
-52.848644052216855
 31
0.0
  0
LINE
  5
243
100
AcDbEntity
100
AcDbLine
  8
0-NGraph
 62
256
370
-1
  6
ByLayer
 10
147.214019629022431
 20
-69.2785980370977512
 30
0.0
 11
232.7859803709775974
 21
-60.7214019629022417
 31
0.0
  0
LINE
  5
244
100
AcDbEntity
100
AcDbLine
  8
0-NGraph
 62
256
370
-1
  6
ByLayer
 10
155.9781391522677154
 20
-46.0327912715984127
 30
0.0
 11
144.0215764226329043
 21
-63.9676353660506152
 31
0.0
  0
LINE
  5
245
100
AcDbEntity
100
AcDbLine
  8
0-NGraph
 62
256
370
-1
  6
ByLayer
 10
135.35866310243253
 20
-64.4303957229190303
 30
0.0
 11
119.6413358601699457
 21
-45.5696030322039363
 31
0.0
  0
LINE
  5
246
100
AcDbEntity
100
AcDbLine
  8
0-NGraph
 62
256
370
-1
  6
ByLayer
 10
67.25
 20
-70.0
 30
0.0
 11
132.75
 21
-70.0
 31
0.0
  0
LINE
  5
247
100
AcDbEntity
100
AcDbLine
  8
0-NGraph
 62
256
370
-1
  6
ByLayer
 10
86.7577014326253106
 20
-16.4845971347493894
 30
0.0
 11
63.2422985673747391
 21
-63.5154028652505218
 31
0.0
  0
LINE
  5
248
100
AcDbEntity
100
AcDbLine
  8
0-NGraph
 62
256
370
-1
  6
ByLayer
 10
111.7577906237844161
 20
33.5155812475688109
 30
0.0
 11
93.2422985673746751
 21
-3.5154028652506497
 31
0.0
  0
LINE
  5
249
100
AcDbEntity
100
AcDbLine
  8
0-NGraph
 62
256
370
-1
  6
ByLayer
 10
136.6638014676309183
 20
147.1440850853010431
 30
0.0
 11
193.3361985323691954
 21
122.8559149146989142
 31
0.0
  0
LINE
  5
24A
100
AcDbEntity
100
AcDbLine
  8
0-NGraph
 62
256
370
-1
  6
ByLayer
 10
131.191892657963848
 20
142.8486440522169687
 30
0.0
 11
138.808107342036152
 21
97.1513559477830313
 31
0.0
  0
LINE
  5
24B
100
AcDbEntity
100
AcDbLine
  8
0-NGraph
 62
256
370
-1
  6
ByLayer
 10
4.7182374575557713
 20
-5.5046103671484001
 30
0.0
 11
55.2817625424442269
 21
-64.4953896328515981
 31
0.0
  0
LINE
  5
24C
100
AcDbEntity
100
AcDbLine
  8
0-NGraph
 62
256
370
-1
  6
ByLayer
 10
82.79434292361627
 20
-9.199371435957362
 30
0.0
 11
7.2056570763837584
 21
-0.8006285640426398
 31
0.0
  0
LINE
  5
24D
100
AcDbEntity
100
AcDbLine
  8
0-NGraph
 62
256
370
-1
  6
ByLayer
 10
3.8424923150230548
 20
6.147987704036888
 30
0.0
 11
46.1575076849770198
 21
73.8520122959632204
 31
0.0
  0
LINE
  5
24E
100
AcDbEntity
100
AcDbLine
  8
0-NGraph
 62
256
370
-1
  6
ByLayer
 10
52.9445038788874953
 20
73.3748662725031409
 30
0.0
 11
65.3317270935176424
 21
45.5036140395853081
 31
0.0
  0
LINE
  5
24F
100
AcDbEntity
100
AcDbLine
  8
0-NGraph
 62
256
370
-1
  6
ByLayer
 10
55.4561810366248622
 20
84.7741584070467553
 30
0.0
 11
124.5438189633751307
 21
145.2258415929532589
 31
0.0
  0
LINE
  5
250
100
AcDbEntity
100
AcDbLine
  8
0-NGraph
 62
256
370
-1
  6
ByLayer
 10
88.0695748633034157
 20
84.2299527625892779
 30
0.0
 11
57.2056570763837442
 21
80.8006285640426398
 31
0.0
  0
LINE
  5
251
100
AcDbEntity
100
AcDbLine
  8
0-NGraph
 62
256
370
-1
  6
ByLayer
 10
97.25
 20
-10.0
 30
0.0
 11
127.75
 21
-10.0
 31
0.0
  0
CIRCLE
  5
252
100
AcDbEntity
100
AcDbCircle
  8
0-NGraph
 62
256
370
-1
  6
ByLayer
 10
180.0
 20
-10.0
 30
0.0
 40
7.25
  0
LINE
  5
253
100
AcDbEntity
100
AcDbLine
  8
0-NGraph
 62
256
370
-1
  6
ByLayer
 10
177.3074175964327424
 20
-3.2685439910818701
 30
0.0
 11
162.6925274112502393
 21
33.2686814718743875
 31
0.0
  0
LINE
  5
254
100
AcDbEntity
100
AcDbLine
  8
0-NGraph
 62
256
370
-1
  6
ByLayer
 10
234.4303957229190303
 20
-55.3586631024325229
 30
0.0
 11
185.5696042770808845
 21
-14.6413368975674132
 31
0.0
  0
LINE
  5
255
100
AcDbEntity
100
AcDbLine
  8
0-NGraph
 62
256
370
-1
  6
ByLayer
 10
197.598048143516877
 20
20.7965842511545489
 30
0.0
 11
183.5970073030870537
 21
-3.7052372195976488
 31
0.0
  0
CIRCLE
  5
256
100
AcDbEntity
100
AcDbCircle
  8
0-NGraph
 62
256
370
-1
  6
ByLayer
 10
130.0
 20
150.0
 30
0.0
 40
7.25
  0
LINE
  5
257
100
AcDbEntity
100
AcDbLine
  8
0-NGraph
 62
256
370
-1
  6
ByLayer
 10
146.7883865373755725
 20
87.4543550484841603
 30
0.0
 11
213.2116134626243138
 21
62.5456449515158965
 31
0.0
  0
LINE
  5
258
100
AcDbEntity
100
AcDbLine
  8
0-NGraph
 62
256
370
-1
  6
ByLayer
 10
93.2422985673746894
 20
-3.5154028652506106
 30
0.0
 11
136.7577014326253106
 21
83.515402865250536
 31
0.0
  0
LINE
  5
259
100
AcDbEntity
100
AcDbLine
  8
0-NGraph
 62
256
370
-1
  6
ByLayer
 10
57.2056570763837371
 20
80.8006285640426398
 30
0.0
 11
132.7943429236163126
 21
89.199371435957346
 31
0.0
  0
LINE
  5
25A
100
AcDbEntity
100
AcDbLine
  8
0-NGraph
 62
256
370
-1
  6
ByLayer
 10
177.3074175964327424
 20
-3.2685439910818692
 30
0.0
 11
142.6925824035672576
 21
83.2685439910819838
 31
0.0
  0
LINE
  5
25B
100
AcDbEntity
100
AcDbLine
  8
0-NGraph
 62
256
370
-1
  6
ByLayer
 10
216.4029926969129178
 20
53.7052372195976488
 30
0.0
 11
183.5970073030870537
 21
-3.7052372195976488
 31
0.0
  0
LINE
  5
25C
100
AcDbEntity
100
AcDbLine
  8
0-NGraph
 62
256
370
-1
  6
ByLayer
 10
175.9784235773671242
 20
-16.0323646339493777
 30
0.0
 11
144.0215764226329043
 21
-63.9676353660506365
 31
0.0
  0
LINE
  5
25D
100
AcDbEntity
100
AcDbLine
  8
0-NGraph
 62
256
370
-1
  6
ByLayer
 10
97.25
 20
-10.0
 30
0.0
 11
172.75
 21
-10.0
 31
0.0
  0
LINE
  5
25E
100
AcDbEntity
100
AcDbLine
  8
0-NGraph
 62
256
370
-1
  6
ByLayer
 10
135.35866310243253
 20
-64.4303957229190303
 30
0.0
 11
94.6413368975674985
 21
-15.5696042770809981
 31
0.0
  0
LINE
  5
25F
100
AcDbEntity
100
AcDbLine
  8
0-NGraph
 62
256
370
-1
  6
ByLayer
 10
52.9445038788874953
 20
73.3748662725031409
 30
0.0
 11
87.0554961211124407
 21
-3.374866272503013
 31
0.0
  0
LINE
  5
260
100
AcDbEntity
100
AcDbLine
  8
1-UGrid DG Part2 InteriorEdges
 62
256
370
-1
  6
ByLayer
 10
130.0
 20
150.0
 30
0.0
 11
200.0
 21
120.0
 31
0.0
  0
LINE
  5
261
100
AcDbEntity
100
AcDbLine
  8
1-UGrid DG Part2 InteriorEdges
 62
256
370
-1
  6
ByLayer
 10
200.0
 20
120.0
 30
0.0
 11
140.0
 21
90.0
 31
0.0
  0
LINE
  5
262
100
AcDbEntity
100
AcDbLine
  8
1-UGrid DG Part2 InteriorEdges
 62
256
370
-1
  6
ByLayer
 10
200.0
 20
120.0
 30
0.0
 11
220.0
 21
60.0
 31
0.0
  0
LINE
  5
263
100
AcDbEntity
100
AcDbLine
  8
1-UGrid DG Part2 InteriorEdges
 62
256
370
-1
  6
ByLayer
 10
220.0
 20
60.0
 30
0.0
 11
240.0
 21
-60.0
 31
0.0
  0
LINE
  5
264
100
AcDbEntity
100
AcDbLine
  8
1-UGrid DG Part2 InteriorEdges
 62
256
370
-1
  6
ByLayer
 10
240.0
 20
-60.0
 30
0.0
 11
140.0
 21
-70.0
 31
0.0
  0
LINE
  5
265
100
AcDbEntity
100
AcDbLine
  8
1-UGrid DG Part2 InteriorEdges
 62
256
370
-1
  6
ByLayer
 10
240.0
 20
-60.0
 30
0.0
 11
180.0
 21
-10.0
 31
0.0
  0
LINE
  5
266
100
AcDbEntity
100
AcDbLine
  8
1-UGrid DG Part2 InteriorEdges
 62
256
370
-1
  6
ByLayer
 10
180.0
 20
-10.0
 30
0.0
 11
140.0
 21
90.0
 31
0.0
  0
LINE
  5
267
100
AcDbEntity
100
AcDbLine
  8
1-UGrid DG Part2 InteriorEdges
 62
256
370
-1
  6
ByLayer
 10
140.0
 20
90.0
 30
0.0
 11
220.0
 21
60.0
 31
0.0
  0
LINE
  5
268
100
AcDbEntity
100
AcDbLine
  8
1-UGrid DG Part2 InteriorEdges
 62
256
370
-1
  6
ByLayer
 10
220.0
 20
60.0
 30
0.0
 11
180.0
 21
-10.0
 31
0.0
  0
LINE
  5
269
100
AcDbEntity
100
AcDbLine
  8
1-UGrid DG Part2 InteriorEdges
 62
256
370
-1
  6
ByLayer
 10
180.0
 20
-10.0
 30
0.0
 11
159.9997155749006481
 21
-40.000426637649042
 31
0.0
  0
LINE
  5
26A
100
AcDbEntity
100
AcDbLine
  8
1-UGrid DG Part2 InteriorEdges
 62
256
370
-1
  6
ByLayer
 10
135.0
 20
-10.0
 30
0.0
 11
159.9999450076830385
 21
40.0001374807924819
 31
0.0
  0
LINE
  5
26B
100
AcDbEntity
100
AcDbLine
  8
1-UGrid DG Part2 InteriorEdges
 62
256
370
-1
  6
ByLayer
 10
159.9999450076830385
 20
40.0001374807924819
 30
0.0
 11
180.0000175342504178
 21
74.9999934246560827
 31
0.0
  0
LINE
  5
26C
100
AcDbEntity
100
AcDbLine
  8
1-UGrid DG Part2 InteriorEdges
 62
256
370
-1
  6
ByLayer
 10
115.0000891911591054
 20
40.0001783823182038
 30
0.0
 11
159.9999450076830101
 21
40.0001374807924748
 31
0.0
  0
LINE
  5
26D
100
AcDbEntity
100
AcDbLine
  8
1-UGrid DG Part2 InteriorEdges
 62
256
370
-1
  6
ByLayer
 10
180.0
 20
-10.0
 30
0.0
 11
135.0
 21
-10.0
 31
0.0
  0
LINE
  5
26E
100
AcDbEntity
100
AcDbLine
  8
1-UGrid DG Part2 GhostEdges
 62
256
370
-1
  6
ByLayer
 10
130.0
 20
150.0
 30
0.0
 11
50.0
 21
80.0
 31
0.0
  0
LINE
  5
26F
100
AcDbEntity
100
AcDbLine
  8
1-UGrid DG Part2 GhostEdges
 62
256
370
-1
  6
ByLayer
 10
50.0
 20
80.0
 30
0.0
 11
140.0
 21
90.0
 31
0.0
  0
LINE
  5
270
100
AcDbEntity
100
AcDbLine
  8
1-UGrid DG Part2 GhostEdges
 62
256
370
-1
  6
ByLayer
 10
95.2752319396871599
 20
85.0305813266319035
 30
0.0
 11
115.0000891911591054
 21
40.0001783823182109
 31
0.0
  0
LINE
  5
271
100
AcDbEntity
100
AcDbLine
  8
1-UGrid DG Part2 GhostEdges
 62
256
370
-1
  6
ByLayer
 10
115.0000891911591054
 20
40.0001783823182109
 30
0.0
 11
90.0
 21
-10.0
 31
0.0
  0
LINE
  5
272
100
AcDbEntity
100
AcDbLine
  8
1-UGrid DG Part2 GhostEdges
 62
256
370
-1
  6
ByLayer
 10
90.0
 20
-10.0
 30
0.0
 11
134.9999999999999432
 21
-10.0
 31
0.0
  0
LINE
  5
273
100
AcDbEntity
100
AcDbLine
  8
1-UGrid DG Part2 GhostEdges
 62
256
370
-1
  6
ByLayer
 10
134.9999999999999432
 20
-10.0
 30
0.0
 11
114.9999989626024757
 21
-39.9999987551229665
 31
0.0
  0
LINE
  5
274
100
AcDbEntity
100
AcDbLine
  8
1-UGrid DG Part2 GhostEdges
 62
256
370
-1
  6
ByLayer
 10
114.9999989626024757
 20
-39.9999987551229665
 30
0.0
 11
140.0
 21
-70.0
 31
0.0
  0
HATCH
  5
275
  8
1-UGrid DG Part2 GhostVertices
 62
256
370
-1
  6
ByLayer
100
AcDbEntity
100
AcDbHatch
 10
0.0
 20
0.0
 30
0.0
210
0.0
220
0.0
230
1.0
  2
SOLID
 70
1
 71
0
 91
1
 92
1
 93
4
 72
2
 10
95.2752319396871599
 20
85.0305813266319035
 40
7.25
 50
0.0
 51
360.0
 73
1
 72
2
 10
50.0
 20
80.0
 40
7.25
 50
0.0
 51
360.0
 73
1
 72
2
 10
90.0
 20
-10.0
 40
7.25
 50
0.0
 51
360.0
 73
1
 72
2
 10
114.9999989626024757
 20
-39.9999987551229665
 40
7.25
 50
0.0
 51
360.0
 73
1
 97
0
 75
0
 76
1
 98
0
  0
LINE
  5
276
100
AcDbEntity
100
AcDbLine
  8
1-UGrid DG Part2 OverlapEdges Example
 62
256
370
-1
  6
ByLayer
 10
95.2752319396871599
 20
85.0305813266319035
 30
0.0
 11
140.0
 21
90.0
 31
0.0
  0
LINE
  5
277
100
AcDbEntity
100
AcDbLine
  8
1-UGrid DG Part2 OverlapEdges Example
 62
256
370
-1
  6
ByLayer
 10
50.0
 20
80.0
 30
0.0
 11
130.0
 21
150.0
 31
0.0
  0
LINE
  5
278
100
AcDbEntity
100
AcDbLine
  8
1-UGrid DG Part2 FrontEdges Example
 62
256
370
-1
  6
ByLayer
 10
50.0
 20
80.0
 30
0.0
 11
95.2752319396871599
 21
85.0305813266319035
 31
0.0
  0
LINE
  5
279
100
AcDbEntity
100
AcDbLine
  8
1-UGrid DG Part2 FrontEdges Example
 62
256
370
-1
  6
ByLayer
 10
95.2752319396871599
 20
85.0305813266319035
 30
0.0
 11
115.0000891911591054
 21
40.0001783823182038
 31
0.0
  0
LINE
  5
27A
100
AcDbEntity
100
AcDbLine
  8
1-UGrid DG Part2 FrontEdges Example
 62
256
370
-1
  6
ByLayer
 10
115.0000891911591054
 20
40.0001783823182038
 30
0.0
 11
90.0
 21
-10.0
 31
0.0
  0
LINE
  5
27B
100
AcDbEntity
100
AcDbLine
  8
1-UGrid DG Part2 FrontEdges Example
 62
256
370
-1
  6
ByLayer
 10
90.0
 20
-10.0
 30
0.0
 11
135.0
 21
-10.0
 31
0.0
  0
LINE
  5
27C
100
AcDbEntity
100
AcDbLine
  8
1-UGrid DG Part2 FrontEdges Example
 62
256
370
-1
  6
ByLayer
 10
135.0
 20
-10.0
 30
0.0
 11
114.9999989626024757
 21
-39.9999987551229665
 31
0.0
  0
LINE
  5
27D
100
AcDbEntity
100
AcDbLine
  8
1-UGrid DG Part2 FrontEdges Example
 62
256
370
-1
  6
ByLayer
 10
114.9999989626024757
 20
-39.9999987551229665
 30
0.0
 11
140.0
 21
-70.0
 31
0.0
  0
LINE
  5
27E
100
AcDbEntity
100
AcDbLine
  8
1-UGrid DG Part2 OverlapEdges Example
 62
256
370
-1
  6
ByLayer
 10
114.9999989626024757
 20
-39.9999987551229665
 30
0.0
 11
159.9997155749006197
 21
-40.0004266376490278
 31
0.0
  0
LINE
  5
27F
100
AcDbEntity
100
AcDbLine
  8
1-UGrid DG Part2 Ghost2OverlapEdges
 62
256
370
-1
  6
ByLayer
 10
90.0
 20
-10.0
 30
0.0
 11
60.0
 21
-70.0
 31
0.0
  0
LINE
  5
280
100
AcDbEntity
100
AcDbLine
  8
1-UGrid DG Part2 Ghost2OverlapEdges
 62
256
370
-1
  6
ByLayer
 10
60.0
 20
-70.0
 30
0.0
 11
140.0
 21
-70.0
 31
0.0
  0
LINE
  5
281
100
AcDbEntity
100
AcDbLine
  8
1-UGrid DG Part2 Ghost2OverlapEdges
 62
256
370
-1
  6
ByLayer
 10
90.0
 20
-10.0
 30
0.0
 11
114.9999989626024757
 21
-39.9999987551229665
 31
0.0
  0
CIRCLE
  5
282
100
AcDbEntity
100
AcDbCircle
  8
0-UGrid Mark UpAdj Vertex
 62
256
370
-1
  6
ByLayer
 10
140.0
 20
90.0
 30
0.0
 40
7.25
  0
LINE
  5
283
100
AcDbEntity
100
AcDbLine
  8
2
 62
256
370
-1
  6
ByLayer
 10
140.0
 20
90.0
 30
0.0
 11
127.5000445955795527
 21
65.0000891911591054
 31
0.0
  0
LINE
  5
284
100
AcDbEntity
100
AcDbLine
  8
2
 62
256
370
-1
  6
ByLayer
 10
127.5000445955795527
 20
65.0000891911591054
 30
0.0
 11
115.0000891911591054
 21
40.0001783823182109
 31
0.0
  0
LINE
  5
285
100
AcDbEntity
100
AcDbLine
  8
2
 62
256
370
-1
  6
ByLayer
 10
140.0
 20
90.0
 30
0.0
 11
149.9999725038415193
 21
65.0000687403962303
 31
0.0
  0
LINE
  5
286
100
AcDbEntity
100
AcDbLine
  8
2
 62
256
370
-1
  6
ByLayer
 10
149.9999725038415193
 20
65.0000687403962303
 30
0.0
 11
159.9999450076830101
 21
40.0001374807924535
 31
0.0
  0
LINE
  5
287
100
AcDbEntity
100
AcDbLine
  8
2
 62
256
370
-1
  6
ByLayer
 10
159.9999450076830101
 20
40.0001374807924535
 30
0.0
 11
147.4999729933480523
 21
15.0000697194141779
 31
0.0
  0
LINE
  5
288
100
AcDbEntity
100
AcDbLine
  8
2
 62
256
370
-1
  6
ByLayer
 10
147.4999729933480523
 20
15.0000697194141779
 30
0.0
 11
135.0
 21
-10.0
 31
0.0
  0
LINE
  5
289
100
AcDbEntity
100
AcDbLine
  8
2
 62
256
370
-1
  6
ByLayer
 10
135.0
 20
-10.0
 30
0.0
 11
125.000040987657556
 21
15.0000982110365175
 31
0.0
  0
LINE
  5
28A
100
AcDbEntity
100
AcDbLine
  8
2
 62
256
370
-1
  6
ByLayer
 10
125.000040987657556
 20
15.0000982110365175
 30
0.0
 11
115.0000891911591054
 21
40.0001783823182038
 31
0.0
  0
LINE
  5
28B
100
AcDbEntity
100
AcDbLine
  8
2
 62
256
370
-1
  6
ByLayer
 10
115.0000891911591054
 20
40.0001783823182038
 30
0.0
 11
102.5001337867386439
 21
15.0002675734773021
 31
0.0
  0
LINE
  5
28C
100
AcDbEntity
100
AcDbLine
  8
2
 62
256
370
-1
  6
ByLayer
 10
102.5001337867386439
 20
15.0002675734773021
 30
0.0
 11
90.0
 21
-10.0
 31
0.0
  0
LINE
  5
28D
100
AcDbEntity
100
AcDbLine
  8
2
 62
256
370
-1
  6
ByLayer
 10
90.0
 20
-10.0
 30
0.0
 11
112.5
 21
-10.0
 31
0.0
  0
LINE
  5
28E
100
AcDbEntity
100
AcDbLine
  8
2
 62
256
370
-1
  6
ByLayer
 10
112.5
 20
-10.0
 30
0.0
 11
135.0
 21
-10.0
 31
0.0
  0
LINE
  5
28F
100
AcDbEntity
100
AcDbLine
  8
2
 62
256
370
-1
  6
ByLayer
 10
115.0000891911591765
 20
40.0001783823180403
 30
0.0
 11
137.5000391911498241
 21
40.0001579315352487
 31
0.0
  0
LINE
  5
290
100
AcDbEntity
100
AcDbLine
  8
2
 62
256
370
-1
  6
ByLayer
 10
137.5000391911498241
 20
40.0001579315352487
 30
0.0
 11
159.9999450076830101
 21
40.0001374807924464
 31
0.0
  0
LINE
  5
291
100
AcDbEntity
100
AcDbLine
  8
0-UGrid
 62
256
370
-1
  6
ByLayer
 10
140.0
 20
90.0
 30
0.0
 11
220.0
 21
60.0
 31
0.0
  0
LINE
  5
292
100
AcDbEntity
100
AcDbLine
  8
0-UGrid
 62
256
370
-1
  6
ByLayer
 10
140.0
 20
90.0
 30
0.0
 11
180.0
 21
-10.0
 31
0.0
  0
LINE
  5
293
100
AcDbEntity
100
AcDbLine
  8
0-UGrid
 62
256
370
-1
  6
ByLayer
 10
94.5242361313597144
 20
84.9471373479288729
 30
0.0
 11
92.9157837984631954
 21
85.1676936334508383
 31
0.0
  0
LINE
  5
294
100
AcDbEntity
100
AcDbLine
  8
1-UGrid DG Part2 Ghost2OverlapEdges
 62
256
370
-1
  6
ByLayer
 10
95.0
 20
85.0
 30
0.0
 11
70.0
 21
35.0
 31
0.0
  0
LINE
  5
295
100
AcDbEntity
100
AcDbLine
  8
1-UGrid DG Part2 Ghost2OverlapEdges
 62
256
370
-1
  6
ByLayer
 10
70.0
 20
35.0
 30
0.0
 11
115.0000891911591054
 21
40.0001783823182038
 31
0.0
  0
LINE
  5
296
100
AcDbEntity
100
AcDbLine
  8
1-UGrid DG Part2 Ghost2OverlapEdges
 62
256
370
-1
  6
ByLayer
 10
70.0
 20
35.0000000000000071
 30
0.0
 11
90.0
 21
-10.0
 31
0.0
  0
LINE
  5
297
100
AcDbEntity
100
AcDbLine
  8
1-UGrid DG Part2 Ghost2OverlapEdges
 62
256
370
-1
  6
ByLayer
 10
50.0
 20
80.0
 30
0.0
 11
70.0
 21
35.0000000000000071
 31
0.0
  0
HATCH
  5
298
  8
1-UGrid DG Part2 Ghost2OverlapVertices
 62
256
370
-1
  6
ByLayer
100
AcDbEntity
100
AcDbHatch
 10
0.0
 20
0.0
 30
0.0
210
0.0
220
0.0
230
1.0
  2
SOLID
 70
1
 71
0
 91
1
 92
1
 93
2
 72
2
 10
70.0
 20
35.0
 40
7.25
 50
0.0
 51
360.0
 73
1
 72
2
 10
60.0
 20
-70.0
 40
7.25
 50
0.0
 51
360.0
 73
1
 97
0
 75
0
 76
1
 98
0
  0
LINE
  5
299
100
AcDbEntity
100
AcDbLine
  8
1-UGrid DG Part2 InteriorEdges
 62
256
370
-1
  6
ByLayer
 10
200.0
 20
25.0
 30
0.0
 11
159.9999450076830101
 21
40.0001374807924535
 31
0.0
  0
LINE
  5
29A
100
AcDbEntity
100
AcDbLine
  8
1-UGrid DG Part2 InteriorEdges
 62
256
370
-1
  6
ByLayer
 10
200.0
 20
25.0
 30
0.0
 11
180.0000175342504178
 21
74.9999934246560827
 31
0.0
  0
HATCH
  5
29B
  8
1-UGrid DG Part2 InteriorVertices
 62
256
370
-1
  6
ByLayer
100
AcDbEntity
100
AcDbHatch
 10
0.0
 20
0.0
 30
0.0
210
0.0
220
0.0
230
1.0
  2
SOLID
 70
1
 71
0
 91
1
 92
1
 93
7
 72
2
 10
200.0
 20
25.0
 40
7.25
 50
0.0
 51
360.0
 73
1
 72
2
 10
180.0
 20
-10.0
 40
7.25
 50
0.0
 51
360.0
 73
1
 72
2
 10
240.0
 20
-60.0
 40
7.25
 50
0.0
 51
360.0
 73
1
 72
2
 10
159.9999450076830385
 20
40.0001374807924819
 40
7.25
 50
0.0
 51
360.0
 73
1
 72
2
 10
180.0000175342504178
 20
74.9999934246560969
 40
7.25
 50
0.0
 51
360.0
 73
1
 72
2
 10
200.0
 20
120.0
 40
7.25
 50
0.0
 51
360.0
 73
1
 72
2
 10
220.0
 20
60.0
 40
7.25
 50
0.0
 51
360.0
 73
1
 97
0
 75
0
 76
1
 98
0
  0
LINE
  5
29C
100
AcDbEntity
100
AcDbLine
  8
1-UGrid New Triangles
 62
256
370
-1
  6
ByLayer
 10
115.0000891911591054
 20
40.0001783823182038
 30
0.0
 11
159.9999450076830101
 21
40.0001374807924535
 31
0.0
  0
LINE
  5
29D
100
AcDbEntity
100
AcDbLine
  8
1-UGrid New Triangles
 62
256
370
-1
  6
ByLayer
 10
159.9999450076830101
 20
40.0001374807924535
 30
0.0
 11
135.0
 21
-10.0
 31
0.0
  0
LINE
  5
29E
100
AcDbEntity
100
AcDbLine
  8
1-UGrid New Triangles
 62
256
370
-1
  6
ByLayer
 10
135.0
 20
-10.0
 30
0.0
 11
115.0000891911591054
 21
40.0001783823182038
 31
0.0
  0
LINE
  5
29F
100
AcDbEntity
100
AcDbLine
  8
1-UGrid New Triangles
 62
256
370
-1
  6
ByLayer
 10
95.2752319396871599
 20
85.0305813266319035
 30
0.0
 11
115.0000891911591054
 21
40.0001783823182038
 31
0.0
  0
LINE
  5
2A0
100
AcDbEntity
100
AcDbLine
  8
1-UGrid New Triangles
 62
256
370
-1
  6
ByLayer
 10
159.9999450076830101
 20
40.0001374807924535
 30
0.0
 11
180.0000175342504178
 21
74.9999934246560827
 31
0.0
  0
LINE
  5
2A1
100
AcDbEntity
100
AcDbLine
  8
1-UGrid New Triangles
 62
256
370
-1
  6
ByLayer
 10
114.9999989626024757
 20
-39.9999987551229665
 30
0.0
 11
135.0
 21
-10.0
 31
0.0
  0
LINE
  5
2A2
100
AcDbEntity
100
AcDbLine
  8
1-UGrid New Triangles
 62
256
370
-1
  6
ByLayer
 10
135.0
 20
-10.0
 30
0.0
 11
159.9997155749006481
 21
-40.0004266376490492
 31
0.0
  0
LINE
  5
2A3
100
AcDbEntity
100
AcDbLine
  8
1-UGrid New Triangles
 62
256
370
-1
  6
ByLayer
 10
159.9997155749006481
 20
-40.0004266376490492
 30
0.0
 11
114.9999989626024757
 21
-39.9999987551229665
 31
0.0
  0
LINE
  5
2A4
100
AcDbEntity
100
AcDbLine
  8
1-UGrid New Triangles
 62
256
370
-1
  6
ByLayer
 10
115.0000891911591054
 20
40.0001783823182038
 30
0.0
 11
140.0
 21
90.0
 31
0.0
  0
LINE
  5
2A5
100
AcDbEntity
100
AcDbLine
  8
1-UGrid New Triangles
 62
256
370
-1
  6
ByLayer
 10
140.0
 20
90.0
 30
0.0
 11
95.2752319396871599
 21
85.0305813266319177
 31
0.0
  0
LINE
  5
2A6
100
AcDbEntity
100
AcDbLine
  8
1-UGrid New Triangles
 62
256
370
-1
  6
ByLayer
 10
95.2752319396871599
 20
85.0305813266319177
 30
0.0
 11
50.0
 21
80.0
 31
0.0
  0
LINE
  5
2A7
100
AcDbEntity
100
AcDbLine
  8
1-UGrid New Triangles
 62
256
370
-1
  6
ByLayer
 10
50.0
 20
80.0
 30
0.0
 11
68.2762309724051448
 21
38.8784803120884348
 31
0.0
  0
LINE
  5
2A8
100
AcDbEntity
100
AcDbLine
  8
1-UGrid New Triangles
 62
256
370
-1
  6
ByLayer
 10
68.2762309724051448
 20
38.8784803120884348
 30
0.0
 11
90.0
 21
-10.0
 31
0.0
  0
LINE
  5
2A9
100
AcDbEntity
100
AcDbLine
  8
1-UGrid New Triangles
 62
256
370
-1
  6
ByLayer
 10
90.0
 20
-10.0
 30
0.0
 11
115.0000891911591054
 21
40.0001783823181967
 31
0.0
  0
LINE
  5
2AA
100
AcDbEntity
100
AcDbLine
  8
1-UGrid New Triangles
 62
256
370
-1
  6
ByLayer
 10
220.0
 20
60.0
 30
0.0
 11
180.0
 21
-10.0
 31
0.0
  0
LINE
  5
2AB
100
AcDbEntity
100
AcDbLine
  8
1-UGrid New Triangles
 62
256
370
-1
  6
ByLayer
 10
180.0
 20
-10.0
 30
0.0
 11
159.9999450076830385
 21
40.0001374807924535
 31
0.0
  0
LINE
  5
2AC
100
AcDbEntity
100
AcDbLine
  8
1-UGrid New Triangles
 62
256
370
-1
  6
ByLayer
 10
159.9999450076830385
 20
40.0001374807924535
 30
0.0
 11
140.0
 21
90.0
 31
0.0
  0
LINE
  5
2AD
100
AcDbEntity
100
AcDbLine
  8
1-UGrid New Triangles
 62
256
370
-1
  6
ByLayer
 10
140.0
 20
-70.0
 30
0.0
 11
90.0
 21
-10.0
 31
0.0
  0
LINE
  5
2AE
100
AcDbEntity
100
AcDbLine
  8
1-UGrid New Triangles
 62
256
370
-1
  6
ByLayer
 10
180.0
 20
-10.0
 30
0.0
 11
159.9997155749006197
 21
-40.0004266376490492
 31
0.0
  0
LINE
  5
2AF
100
AcDbEntity
100
AcDbLine
  8
1-UGrid New Triangles
 62
256
370
-1
  6
ByLayer
 10
159.9997155749006197
 20
-40.0004266376490492
 30
0.0
 11
140.0
 21
-70.0
 31
0.0
  0
LINE
  5
2B0
100
AcDbEntity
100
AcDbLine
  8
1-UGrid New Triangles
 62
256
370
-1
  6
ByLayer
 10
90.0
 20
-10.0
 30
0.0
 11
135.0
 21
-10.0
 31
0.0
  0
LINE
  5
2B1
100
AcDbEntity
100
AcDbLine
  8
1-UGrid New Triangles
 62
256
370
-1
  6
ByLayer
 10
135.0
 20
-10.0
 30
0.0
 11
180.0
 21
-10.0
 31
0.0
  0
LINE
  5
2B2
100
AcDbEntity
100
AcDbLine
  8
1-UGrid New Triangles
 62
256
370
-1
  6
ByLayer
 10
140.0
 20
90.0
 30
0.0
 11
180.0000175342504178
 21
74.9999934246560969
 31
0.0
  0
LINE
  5
2B3
100
AcDbEntity
100
AcDbLine
  8
1-UGrid New Triangles
 62
256
370
-1
  6
ByLayer
 10
180.0000175342504178
 20
74.9999934246560969
 30
0.0
 11
220.0
 21
60.0
 31
0.0
  0
LINE
  5
2B4
100
AcDbEntity
100
AcDbLine
  8
1-UGrid New Triangles
 62
256
370
-1
  6
ByLayer
 10
180.0000175342504178
 20
74.9999934246560969
 30
0.0
 11
200.0
 21
25.0
 31
0.0
  0
LINE
  5
2B5
100
AcDbEntity
100
AcDbLine
  8
1-UGrid New Triangles
 62
256
370
-1
  6
ByLayer
 10
200.0
 20
24.9999999999999929
 30
0.0
 11
159.9999450076830385
 21
40.0001374807924819
 31
0.0
  0
LINE
  5
2B6
100
AcDbEntity
100
AcDbLine
  8
1-UGrid New Triangles
 62
256
370
-1
  6
ByLayer
 10
70.0
 20
35.0000000000000071
 30
0.0
 11
115.0000891911591054
 21
40.0001783823182038
 31
0.0
  0
LINE
  5
2B7
100
AcDbEntity
100
AcDbLine
  8
1-UGrid New Triangles
 62
256
370
-1
  6
ByLayer
 10
70.0
 20
35.0000000000000071
 30
0.0
 11
95.0
 21
85.0000000000000142
 31
0.0
  0
POINT
  5
2B8
100
AcDbEntity
100
AcDbPoint
  8
1-UGrid Vertex Idx
 62
256
370
-1
  6
ByLayer
 10
102.5001337867386582
 20
15.0002675734773092
 30
0.0
  0
POINT
  5
2B9
100
AcDbEntity
100
AcDbPoint
  8
1-UGrid Vertex Idx
 62
256
370
-1
  6
ByLayer
 10
147.4999729933480523
 20
15.000069719414185
 30
0.0
  0
POINT
  5
2BA
100
AcDbEntity
100
AcDbPoint
  8
1-UGrid Vertex Idx
 62
256
370
-1
  6
ByLayer
 10
115.0000891911591054
 20
40.0001783823182038
 30
0.0
  0
POINT
  5
2BB
100
AcDbEntity
100
AcDbPoint
  8
1-UGrid Vertex Idx
 62
256
370
-1
  6
ByLayer
 10
149.9999725038415193
 20
65.0000687403962303
 30
0.0
  0
POINT
  5
2BC
100
AcDbEntity
100
AcDbPoint
  8
1-UGrid Vertex Idx
 62
256
370
-1
  6
ByLayer
 10
149.9999725038414908
 20
65.0000687403962303
 30
0.0
  0
POINT
  5
2BD
100
AcDbEntity
100
AcDbPoint
  8
1-UGrid Vertex Idx
 62
256
370
-1
  6
ByLayer
 10
127.5000445955795527
 20
65.0000891911591054
 30
0.0
  0
MTEXT
  5
2BE
100
AcDbEntity
100
AcDbMText
  8
2-Triangles
 62
256
370
-1
  6
ByLayer
 10
101.7609509658366989
 20
-1.2455832025757063
 30
0.0
 40
3.0
 41
100.0
 71
5
 72
2
  1
D29
  7
greeks
 50
0.0
 73
0
 44
1.0
  0
MTEXT
  5
2BF
100
AcDbEntity
100
AcDbMText
  8
2-Triangles
 62
256
370
-1
  6
ByLayer
 10
124.7910609212629112
 20
-1.5133751788015928
 30
0.0
 40
3.0
 41
100.0
 71
5
 72
2
  1
D31
  7
greeks
 50
0.0
 73
0
 44
1.0
  0
MTEXT
  5
2C0
100
AcDbEntity
100
AcDbMText
  8
2-Triangles
 62
256
370
-1
  6
ByLayer
 10
114.6149658246792313
 20
23.6590705864316959
 30
0.0
 40
3.0
 41
100.0
 71
5
 72
2
  1
D30
  7
greeks
 50
0.0
 73
0
 44
1.0
  0
MTEXT
  5
2C1
100
AcDbEntity
100
AcDbMText
  8
2-Triangles
 62
256
370
-1
  6
ByLayer
 10
113.5437979197756846
 20
6.5203841079749889
 30
0.0
 40
3.0
 41
100.0
 71
5
 72
2
  1
D32
  7
greeks
 50
0.0
 73
0
 44
1.0
  0
MTEXT
  5
2C2
100
AcDbEntity
100
AcDbMText
  8
2-Triangles
 62
256
370
-1
  6
ByLayer
 10
125.9961248142793977
 20
31.2911419088694487
 30
0.0
 40
3.0
 41
100.0
 71
5
 72
2
  1
D33
  7
greeks
 50
0.0
 73
0
 44
1.0
  0
MTEXT
  5
2C3
100
AcDbEntity
100
AcDbMText
  8
2-Triangles
 62
256
370
-1
  6
ByLayer
 10
135.6366359584112899
 20
6.3864881198620456
 30
0.0
 40
3.0
 41
100.0
 71
5
 72
2
  1
D34
  7
greeks
 50
0.0
 73
0
 44
1.0
  0
MTEXT
  5
2C4
100
AcDbEntity
100
AcDbMText
  8
2-Triangles
 62
256
370
-1
  6
ByLayer
 10
148.3567548291408684
 20
31.5589338850953318
 30
0.0
 40
3.0
 41
100.0
 71
5
 72
2
  1
D35
  7
greeks
 50
0.0
 73
0
 44
1.0
  0
MTEXT
  5
2C5
100
AcDbEntity
100
AcDbMText
  8
2-Triangles
 62
256
370
-1
  6
ByLayer
 10
136.9755958395407163
 20
23.7929665745446393
 30
0.0
 40
3.0
 41
100.0
 71
5
 72
2
  1
D36
  7
greeks
 50
0.0
 73
0
 44
1.0
  0
MTEXT
  5
2C6
100
AcDbEntity
100
AcDbMText
  8
2-Triangles
 62
256
370
-1
  6
ByLayer
 10
126.7995007429570506
 20
48.5637243754391079
 30
0.0
 40
3.0
 41
100.0
 71
5
 72
2
  1
D37
  7
greeks
 50
0.0
 73
0
 44
1.0
  0
MTEXT
  5
2C7
100
AcDbEntity
100
AcDbMText
  8
2-Triangles
 62
256
370
-1
  6
ByLayer
 10
148.892338781592656
 20
48.429828387326161
 30
0.0
 40
3.0
 41
100.0
 71
5
 72
2
  1
D38
  7
greeks
 50
0.0
 73
0
 44
1.0
  0
MTEXT
  5
2C8
100
AcDbEntity
100
AcDbMText
  8
2-Triangles
 62
256
370
-1
  6
ByLayer
 10
139.5196196136866433
 20
73.3344821763335659
 30
0.0
 40
3.0
 41
100.0
 71
5
 72
2
  1
D39
  7
greeks
 50
0.0
 73
0
 44
1.0
  0
MTEXT
  5
2C9
100
AcDbEntity
100
AcDbMText
  8
2-Triangles
 62
256
370
-1
  6
ByLayer
 10
137.912867756331309
 20
56.4635876741027403
 30
0.0
 40
3.0
 41
100.0
 71
5
 72
2
  1
D40
  7
greeks
 50
0.0
 73
0
 44
1.0
  0
MTEXT
  5
2CA
100
AcDbEntity
100
AcDbMText
  8
2-Triangles
 62
256
370
-1
  6
ByLayer
 10
105.6439346211120665
 20
78.2886337365124518
 30
0.0
 40
3.0
 41
100.0
 71
5
 72
2
  1
D41
  7
greeks
 50
0.0
 73
0
 44
1.0
  0
MTEXT
  5
2CB
100
AcDbEntity
100
AcDbMText
  8
2-Triangles
 62
256
370
-1
  6
ByLayer
 10
115.2844457652439445
 20
56.1957956978768536
 30
0.0
 40
3.0
 41
100.0
 71
5
 72
2
  1
D42
  7
greeks
 50
0.0
 73
0
 44
1.0
  0
MTEXT
  5
2CC
100
AcDbEntity
100
AcDbMText
  8
2-Triangles
 62
256
370
-1
  6
ByLayer
 10
127.2011887072958984
 20
81.9038254155619114
 30
0.0
 40
3.0
 41
100.0
 71
5
 72
2
  1
D43
  7
greeks
 50
0.0
 73
0
 44
1.0
  0
MTEXT
  5
2CD
100
AcDbEntity
100
AcDbMText
  8
2-Triangles
 62
256
370
-1
  6
ByLayer
 10
117.2928855869380982
 20
71.9955222952041254
 30
0.0
 40
3.0
 41
100.0
 71
5
 72
2
  1
D44
  7
greeks
 50
0.0
 73
0
 44
1.0
  0
LINE
  5
2CE
100
AcDbEntity
100
AcDbLine
  8
2
 62
256
370
-1
  6
ByLayer
 10
180.0
 20
-10.0
 30
0.0
 11
169.9999725038415193
 21
15.0000687403962267
 31
0.0
  0
LINE
  5
2CF
100
AcDbEntity
100
AcDbLine
  8
2
 62
256
370
-1
  6
ByLayer
 10
169.9999725038415193
 20
15.0000687403962267
 30
0.0
 11
159.9999450076830101
 21
40.0001374807924464
 31
0.0
  0
LINE
  5
2D0
100
AcDbEntity
100
AcDbLine
  8
2
 62
256
370
-1
  6
ByLayer
 10
135.0
 20
-10.0
 30
0.0
 11
157.5
 21
-10.0
 31
0.0
  0
LINE
  5
2D1
100
AcDbEntity
100
AcDbLine
  8
2
 62
256
370
-1
  6
ByLayer
 10
157.5
 20
-10.0
 30
0.0
 11
180.0
 21
-10.0
 31
0.0
  0
LINE
  5
2D2
100
AcDbEntity
100
AcDbLine
  8
2
 62
256
370
-1
  6
ByLayer
 10
157.5
 20
-10.0
 30
0.0
 11
147.4999729933480523
 21
15.000069719414185
 31
0.0
  0
LINE
  5
2D3
100
AcDbEntity
100
AcDbLine
  8
2
 62
256
370
-1
  6
ByLayer
 10
147.4999729933480523
 20
15.000069719414185
 30
0.0
 11
169.9999725038415193
 21
15.0000687403962267
 31
0.0
  0
LINE
  5
2D4
100
AcDbEntity
100
AcDbLine
  8
2
 62
256
370
-1
  6
ByLayer
 10
169.9999725038415193
 20
15.0000687403962267
 30
0.0
 11
157.5
 21
-10.0
 31
0.0
  0
LINE
  5
2D5
100
AcDbEntity
100
AcDbLine
  8
1-UGrid
 62
256
370
-1
  6
ByLayer
 10
135.0
 20
-10.0
 30
0.0
 11
115.0000891911591054
 21
40.0001783823182038
 31
0.0
  0
LINE
  5
2D6
100
AcDbEntity
100
AcDbLine
  8
1-UGrid DG Part2 BorderEdges
 62
256
370
-1
  6
ByLayer
 10
130.0
 20
150.0
 30
0.0
 11
140.0
 21
90.0
 31
0.0
  0
LINE
  5
2D7
100
AcDbEntity
100
AcDbLine
  8
1-UGrid DG Part2 BorderEdges
 62
256
370
-1
  6
ByLayer
 10
140.0
 20
90.0
 30
0.0
 11
115.0000891911591054
 21
40.0001783823182038
 31
0.0
  0
LINE
  5
2D8
100
AcDbEntity
100
AcDbLine
  8
1-UGrid DG Part2 BorderEdges
 62
256
370
-1
  6
ByLayer
 10
134.9999999999999716
 20
-10.0000000000000249
 30
0.0
 11
159.9997155749006197
 21
-40.0004266376490492
 31
0.0
  0
LINE
  5
2D9
100
AcDbEntity
100
AcDbLine
  8
1-UGrid DG Part2 BorderEdges
 62
256
370
-1
  6
ByLayer
 10
159.9997155749006197
 20
-40.0004266376490492
 30
0.0
 11
140.0
 21
-70.0
 31
0.0
  0
LINE
  5
2DA
100
AcDbEntity
100
AcDbLine
  8
1-UGrid DG Part2 BorderEdges
 62
256
370
-1
  6
ByLayer
 10
115.0000891911591054
 20
40.0001783823182038
 30
0.0
 11
134.9999999999999716
 21
-10.0000000000000249
 31
0.0
  0
HATCH
  5
2DB
  8
1-UGrid DG Part2 FrontVertices Example
 62
256
370
-1
  6
ByLayer
100
AcDbEntity
100
AcDbHatch
 10
0.0
 20
0.0
 30
0.0
210
0.0
220
0.0
230
1.0
  2
SOLID
 70
1
 71
0
 91
1
 92
1
 93
4
 72
2
 10
95.2752319396871599
 20
85.0305813266319035
 40
7.25
 50
0.0
 51
360.0
 73
1
 72
2
 10
50.0
 20
80.0
 40
7.25
 50
0.0
 51
360.0
 73
1
 72
2
 10
90.0
 20
-10.0
 40
7.25
 50
0.0
 51
360.0
 73
1
 72
2
 10
114.9999989626024757
 20
-39.9999987551229665
 40
7.25
 50
0.0
 51
360.0
 73
1
 97
0
 75
0
 76
1
 98
0
  0
LINE
  5
2DC
100
AcDbEntity
100
AcDbLine
  8
1-UGrid DG Part2 H5Fed FrontEdges
 62
256
370
-1
  6
ByLayer
 10
50.0
 20
80.0
 30
0.0
 11
95.0
 21
85.0
 31
0.0
  0
LINE
  5
2DD
100
AcDbEntity
100
AcDbLine
  8
1-UGrid DG Part2 H5Fed FrontEdges
 62
256
370
-1
  6
ByLayer
 10
95.0
 20
85.0
 30
0.0
 11
70.0
 21
35.0
 31
0.0
  0
LINE
  5
2DE
100
AcDbEntity
100
AcDbLine
  8
1-UGrid DG Part2 H5Fed FrontEdges
 62
256
370
-1
  6
ByLayer
 10
70.0
 20
35.0
 30
0.0
 11
90.0
 21
-10.0
 31
0.0
  0
LINE
  5
2DF
100
AcDbEntity
100
AcDbLine
  8
1-UGrid DG Part2 H5Fed FrontEdges
 62
256
370
-1
  6
ByLayer
 10
90.0
 20
-10.0
 30
0.0
 11
60.0
 21
-70.0
 31
0.0
  0
LINE
  5
2E0
100
AcDbEntity
100
AcDbLine
  8
1-UGrid DG Part2 H5Fed OverlapEdges
 62
256
370
-1
  6
ByLayer
 10
140.0
 20
-70.0
 30
0.0
 11
90.0
 21
-10.0
 31
0.0
  0
LINE
  5
2E1
100
AcDbEntity
100
AcDbLine
  8
1-UGrid DG Part2 H5Fed OverlapEdges
 62
256
370
-1
  6
ByLayer
 10
90.0
 20
-10.0
 30
0.0
 11
135.0
 21
-10.0
 31
0.0
  0
LINE
  5
2E2
100
AcDbEntity
100
AcDbLine
  8
1-UGrid DG Part2 H5Fed OverlapEdges
 62
256
370
-1
  6
ByLayer
 10
114.9999989626024757
 20
-39.9999987551229665
 30
0.0
 11
134.9999999999999716
 21
-10.0000000000000355
 31
0.0
  0
LINE
  5
2E3
100
AcDbEntity
100
AcDbLine
  8
1-UGrid DG Part2 H5Fed OverlapEdges
 62
256
370
-1
  6
ByLayer
 10
90.0
 20
-10.0
 30
0.0
 11
115.0000891911591054
 21
40.0001783823182038
 31
0.0
  0
LINE
  5
2E4
100
AcDbEntity
100
AcDbLine
  8
1-UGrid DG Part2 H5Fed OverlapEdges
 62
256
370
-1
  6
ByLayer
 10
115.0000891911591054
 20
40.0001783823182038
 30
0.0
 11
70.0
 21
35.0
 31
0.0
  0
LINE
  5
2E5
100
AcDbEntity
100
AcDbLine
  8
1-UGrid DG Part2 H5Fed OverlapEdges
 62
256
370
-1
  6
ByLayer
 10
115.0000891911591054
 20
40.0001783823182038
 30
0.0
 11
95.2752319396871599
 21
85.0305813266319177
 31
0.0
  0
HATCH
  5
2E6
  8
1-UGrid DG Part2 BorderVertices
 62
256
370
-1
  6
ByLayer
100
AcDbEntity
100
AcDbHatch
 10
0.0
 20
0.0
 30
0.0
210
0.0
220
0.0
230
1.0
  2
SOLID
 70
1
 71
0
 91
1
 92
1
 93
1
 72
2
 10
130.0
 20
150.0
 40
7.25
 50
0.0
 51
360.0
 73
1
 97
0
 75
0
 76
1
 98
0
  0
HATCH
  5
2E7
  8
1-UGrid DG Part2 BorderVertices
 62
256
370
-1
  6
ByLayer
100
AcDbEntity
100
AcDbHatch
 10
0.0
 20
0.0
 30
0.0
210
0.0
220
0.0
230
1.0
  2
SOLID
 70
1
 71
0
 91
1
 92
1
 93
5
 72
2
 10
140.0
 20
90.0
 40
7.25
 50
0.0
 51
360.0
 73
1
 72
2
 10
115.0000891911591054
 20
40.0001783823182038
 40
7.25
 50
0.0
 51
360.0
 73
1
 72
2
 10
135.0
 20
-10.0
 40
7.25
 50
0.0
 51
360.0
 73
1
 72
2
 10
159.9997155749006197
 20
-40.0004266376490492
 40
7.25
 50
0.0
 51
360.0
 73
1
 72
2
 10
140.0
 20
-70.0
 40
7.25
 50
0.0
 51
360.0
 73
1
 97
0
 75
0
 76
1
 98
0
  0
HATCH
  5
2E8
  8
1-UGrid DG Part2 OverlapVertices H5Fed
 62
256
370
-1
  6
ByLayer
100
AcDbEntity
100
AcDbHatch
 10
0.0
 20
0.0
 30
0.0
210
0.0
220
0.0
230
1.0
  2
SOLID
 70
1
 71
0
 91
1
 92
1
 93
1
 72
2
 10
114.9999989626024757
 20
-39.9999987551229665
 40
7.25
 50
0.0
 51
360.0
 73
1
 97
0
 75
0
 76
1
 98
0
  0
LINE
  5
2E9
100
AcDbEntity
100
AcDbLine
  8
0-UGrid
 62
256
370
-1
  6
ByLayer
 10
140.0
 20
90.0
 30
0.0
 11
90.0
 21
-10.0
 31
0.0
  0
LINE
  5
2EA
100
AcDbEntity
100
AcDbLine
  8
0-UGrid DG Part2 BorderEdges
 62
256
370
-1
  6
ByLayer
 10
220.0
 20
60.0
 30
0.0
 11
140.0
 21
90.0
 31
0.0
  0
LINE
  5
2EB
100
AcDbEntity
100
AcDbLine
  8
0-UGrid DG Part2 BorderEdges
 62
256
370
-1
  6
ByLayer
 10
140.0
 20
90.0
 30
0.0
 11
90.0
 21
-10.0
 31
0.0
  0
LINE
  5
2EC
100
AcDbEntity
100
AcDbLine
  8
0-UGrid DG Part2 BorderEdges
 62
256
370
-1
  6
ByLayer
 10
90.0
 20
-10.0
 30
0.0
 11
60.0
 21
-70.0
 31
0.0
  0
LINE
  5
2ED
100
AcDbEntity
100
AcDbLine
  8
1-UGrid 0Part1 FrontEdges H5Fed
 62
256
370
-1
  6
ByLayer
 10
140.0
 20
-70.0
 30
0.0
 11
114.9999989626024757
 21
-39.9999987551229665
 31
0.0
  0
LINE
  5
2EE
100
AcDbEntity
100
AcDbLine
  8
1-UGrid 0Part1 FrontEdges H5Fed
 62
256
370
-1
  6
ByLayer
 10
114.9999989626024757
 20
-39.9999987551229665
 30
0.0
 11
135.0
 21
-10.0
 31
0.0
  0
LINE
  5
2EF
100
AcDbEntity
100
AcDbLine
  8
1-UGrid 0Part1 FrontEdges H5Fed
 62
256
370
-1
  6
ByLayer
 10
135.0
 20
-10.0
 30
0.0
 11
159.9999450076830385
 21
40.0001374807924819
 31
0.0
  0
LINE
  5
2F0
100
AcDbEntity
100
AcDbLine
  8
1-UGrid 0Part1 FrontEdges H5Fed
 62
256
370
-1
  6
ByLayer
 10
159.9999450076830385
 20
40.0001374807924819
 30
0.0
 11
200.0
 21
24.9999999999999964
 31
0.0
  0
LINE
  5
2F1
100
AcDbEntity
100
AcDbLine
  8
1-UGrid 0Part1 FrontEdges H5Fed
 62
256
370
-1
  6
ByLayer
 10
200.0
 20
24.9999999999999964
 30
0.0
 11
180.0
 21
-10.0
 31
0.0
  0
LINE
  5
2F2
100
AcDbEntity
100
AcDbLine
  8
1-UGrid 0Part1 FrontEdges H5Fed
 62
256
370
-1
  6
ByLayer
 10
180.0
 20
-10.0
 30
0.0
 11
240.0
 21
-60.0
 31
0.0
  0
LINE
  5
2F3
100
AcDbEntity
100
AcDbLine
  8
1-UGrid 0Part1 OverlapEdges H5Fed
 62
256
370
-1
  6
ByLayer
 10
60.0
 20
-70.0
 30
0.0
 11
140.0
 21
-70.0
 31
0.0
  0
LINE
  5
2F4
100
AcDbEntity
100
AcDbLine
  8
1-UGrid 0Part1 OverlapEdges H5Fed
 62
256
370
-1
  6
ByLayer
 10
90.0
 20
-10.0
 30
0.0
 11
114.9999989626024757
 21
-39.9999987551229665
 31
0.0
  0
LINE
  5
2F5
100
AcDbEntity
100
AcDbLine
  8
1-UGrid 0Part1 OverlapEdges H5Fed
 62
256
370
-1
  6
ByLayer
 10
90.0
 20
-10.0
 30
0.0
 11
135.0
 21
-10.0
 31
0.0
  0
LINE
  5
2F6
100
AcDbEntity
100
AcDbLine
  8
1-UGrid 0Part1 OverlapEdges H5Fed
 62
256
370
-1
  6
ByLayer
 10
135.0
 20
-10.0
 30
0.0
 11
115.0000891911591054
 21
40.0001783823182038
 31
0.0
  0
LINE
  5
2F7
100
AcDbEntity
100
AcDbLine
  8
1-UGrid 0Part1 OverlapEdges H5Fed
 62
256
370
-1
  6
ByLayer
 10
115.0000891911591054
 20
40.0001783823182038
 30
0.0
 11
159.9999450076831238
 21
40.0001374807924535
 31
0.0
  0
LINE
  5
2F8
100
AcDbEntity
100
AcDbLine
  8
1-UGrid 0Part1 OverlapEdges H5Fed
 62
256
370
-1
  6
ByLayer
 10
159.9999450076831238
 20
40.0001374807924535
 30
0.0
 11
140.0
 21
90.0
 31
0.0
  0
LINE
  5
2F9
100
AcDbEntity
100
AcDbLine
  8
1-UGrid 0Part1 OverlapEdges H5Fed
 62
256
370
-1
  6
ByLayer
 10
159.9999450076830385
 20
40.0001374807924535
 30
0.0
 11
180.0000175342504178
 21
74.9999934246560969
 31
0.0
  0
LINE
  5
2FA
100
AcDbEntity
100
AcDbLine
  8
1-UGrid 0Part1 OverlapEdges H5Fed
 62
256
370
-1
  6
ByLayer
 10
180.0000175342504178
 20
74.9999934246560969
 30
0.0
 11
200.0
 21
24.9999999999999964
 31
0.0
  0
LINE
  5
2FB
100
AcDbEntity
100
AcDbLine
  8
1-UGrid 0Part1 OverlapEdges H5Fed
 62
256
370
-1
  6
ByLayer
 10
200.0
 20
24.9999999999999964
 30
0.0
 11
220.0
 21
60.0
 31
0.0
  0
LINE
  5
2FC
100
AcDbEntity
100
AcDbLine
  8
1-UGrid 0Part1 OverlapEdges H5Fed
 62
256
370
-1
  6
ByLayer
 10
220.0
 20
60.0
 30
0.0
 11
240.0
 21
-60.0
 31
0.0
  0
LINE
  5
2FD
100
AcDbEntity
100
AcDbLine
  8
1-UGrid 0Part1 BorderEdges H5Fed
 62
256
370
-1
  6
ByLayer
 10
173.2116309968748453
 20
77.5456383761719508
 30
0.0
 11
140.0
 21
90.0
 31
0.0
  0
LINE
  5
2FE
100
AcDbEntity
100
AcDbLine
  8
1-UGrid 0Part1 BorderEdges H5Fed
 62
256
370
-1
  6
ByLayer
 10
140.0
 20
90.0
 30
0.0
 11
115.0000891911591054
 21
40.0001783823182038
 31
0.0
  0
LINE
  5
2FF
100
AcDbEntity
100
AcDbLine
  8
1-UGrid 0Part1 BorderEdges H5Fed
 62
256
370
-1
  6
ByLayer
 10
115.0000891911591054
 20
40.0001783823182038
 30
0.0
 11
90.0
 21
-10.0000000000000036
 31
0.0
  0
LINE
  5
300
100
AcDbEntity
100
AcDbLine
  8
1-UGrid 0Part1 BorderEdges H5Fed
 62
256
370
-1
  6
ByLayer
 10
90.0
 20
-10.0000000000000036
 30
0.0
 11
60.0
 21
-70.0
 31
0.0
  0
HATCH
  5
301
  8
1-UGrid 0Part1 InteriorVertices H5Fed
 62
256
370
-1
  6
ByLayer
100
AcDbEntity
100
AcDbHatch
 10
0.0
 20
0.0
 30
0.0
210
0.0
220
0.0
230
1.0
  2
SOLID
 70
1
 71
0
 91
1
 92
1
 93
6
 72
2
 10
70.0
 20
35.0
 40
7.25
 50
0.0
 51
360.0
 73
1
 72
2
 10
95.0
 20
85.0
 40
7.25
 50
0.0
 51
360.0
 73
1
 72
2
 10
130.0
 20
150.0
 40
7.25
 50
0.0
 51
360.0
 73
1
 72
2
 10
50.0
 20
80.0
 40
7.25
 50
0.0
 51
360.0
 73
1
 72
2
 10
200.0
 20
120.0
 40
7.25
 50
0.0
 51
360.0
 73
1
 72
2
 10
0.0
 20
0.0
 40
7.25
 50
0.0
 51
360.0
 73
1
 97
0
 75
0
 76
1
 98
0
  0
LINE
  5
302
100
AcDbEntity
100
AcDbLine
  8
1-UGrid
 62
256
370
-1
  6
ByLayer
 10
180.0000175342504178
 20
74.9999934246560969
 30
0.0
 11
220.0
 21
60.0
 31
0.0
  0
CIRCLE
  5
303
100
AcDbEntity
100
AcDbCircle
  8
1-NGraph
 62
256
370
-1
  6
ByLayer
 10
90.0
 20
-10.0
 30
0.0
 40
7.25
  0
CIRCLE
  5
304
100
AcDbEntity
100
AcDbCircle
  8
1-NGraph
 62
256
370
-1
  6
ByLayer
 10
115.0000891911591054
 20
40.0001783823182038
 30
0.0
 40
7.25
  0
CIRCLE
  5
305
100
AcDbEntity
100
AcDbCircle
  8
1-NGraph
 62
256
370
-1
  6
ByLayer
 10
140.0
 20
90.0
 30
0.0
 40
7.25
  0
CIRCLE
  5
306
100
AcDbEntity
100
AcDbCircle
  8
1-NGraph
 62
256
370
-1
  6
ByLayer
 10
60.0
 20
-70.0
 30
0.0
 40
7.25
  0
CIRCLE
  5
307
100
AcDbEntity
100
AcDbCircle
  8
1-NGraph
 62
256
370
-1
  6
ByLayer
 10
180.0000175342504178
 20
74.9999934246560969
 30
0.0
 40
7.25
  0
CIRCLE
  5
308
100
AcDbEntity
100
AcDbCircle
  8
1-NGraph
 62
256
370
-1
  6
ByLayer
 10
220.0
 20
60.0
 30
0.0
 40
7.25
  0
LINE
  5
309
100
AcDbEntity
100
AcDbLine
  8
1-UGrid 0Part1 BorderEdges H5Fed
 62
256
370
-1
  6
ByLayer
 10
220.0
 20
60.0
 30
0.0
 11
173.2116309968748453
 21
77.5456383761719508
 31
0.0
  0
LINE
  5
30A
100
AcDbEntity
100
AcDbLine
  8
0-UGrid Part1 BorderEdges H5Fed
 62
256
370
-1
  6
ByLayer
 10
220.0
 20
60.0
 30
0.0
 11
140.0
 21
90.0
 31
0.0
  0
LINE
  5
30B
100
AcDbEntity
100
AcDbLine
  8
0-UGrid Part1 BorderEdges H5Fed
 62
256
370
-1
  6
ByLayer
 10
140.0
 20
90.0
 30
0.0
 11
90.0
 21
-10.0
 31
0.0
  0
LINE
  5
30C
100
AcDbEntity
100
AcDbLine
  8
0-UGrid Part1 BorderEdges H5Fed
 62
256
370
-1
  6
ByLayer
 10
90.0
 20
-10.0
 30
0.0
 11
60.0
 21
-70.0
 31
0.0
  0
LINE
  5
30D
100
AcDbEntity
100
AcDbLine
  8
0-UGrid Part1 FrontEdges H5Fed
 62
256
370
-1
  6
ByLayer
 10
240.0
 20
-60.0
 30
0.0
 11
180.0
 21
-10.0
 31
0.0
  0
LINE
  5
30E
100
AcDbEntity
100
AcDbLine
  8
0-UGrid Part1 FrontEdges H5Fed
 62
256
370
-1
  6
ByLayer
 10
180.0
 20
-10.0
 30
0.0
 11
140.0
 21
-70.0
 31
0.0
  0
LINE
  5
30F
100
AcDbEntity
100
AcDbLine
  8
0-UGrid Part1 InteriorEdges H5Fed
 62
256
370
-1
  6
ByLayer
 10
217.7073486963779203
 20
66.8779539108662107
 30
0.0
 11
200.0
 21
120.0
 31
0.0
  0
LINE
  5
310
100
AcDbEntity
100
AcDbLine
  8
0-UGrid Part1 InteriorEdges H5Fed
 62
256
370
-1
  6
ByLayer
 10
200.0
 20
120.0
 30
0.0
 11
130.0
 21
150.0
 31
0.0
  0
LINE
  5
311
100
AcDbEntity
100
AcDbLine
  8
0-UGrid Part1 InteriorEdges H5Fed
 62
256
370
-1
  6
ByLayer
 10
130.0
 20
150.0
 30
0.0
 11
50.0
 21
80.0
 31
0.0
  0
LINE
  5
312
100
AcDbEntity
100
AcDbLine
  8
0-UGrid Part1 InteriorEdges H5Fed
 62
256
370
-1
  6
ByLayer
 10
50.0
 20
80.0
 30
0.0
 11
0.0
 21
0.0
 31
0.0
  0
LINE
  5
313
100
AcDbEntity
100
AcDbLine
  8
0-UGrid Part1 InteriorEdges H5Fed
 62
256
370
-1
  6
ByLayer
 10
0.0
 20
0.0
 30
0.0
 11
60.0
 21
-70.0
 31
0.0
  0
LINE
  5
314
100
AcDbEntity
100
AcDbLine
  8
0-UGrid Part1 InteriorEdges H5Fed
 62
256
370
-1
  6
ByLayer
 10
0.0
 20
0.0
 30
0.0
 11
90.0
 21
-10.0
 31
0.0
  0
LINE
  5
315
100
AcDbEntity
100
AcDbLine
  8
0-UGrid Part1 InteriorEdges H5Fed
 62
256
370
-1
  6
ByLayer
 10
90.0
 20
-10.0
 30
0.0
 11
50.0
 21
80.0
 31
0.0
  0
LINE
  5
316
100
AcDbEntity
100
AcDbLine
  8
0-UGrid Part1 InteriorEdges H5Fed
 62
256
370
-1
  6
ByLayer
 10
50.0
 20
80.0
 30
0.0
 11
140.0
 21
90.0
 31
0.0
  0
LINE
  5
317
100
AcDbEntity
100
AcDbLine
  8
0-UGrid Part1 InteriorEdges H5Fed
 62
256
370
-1
  6
ByLayer
 10
140.0
 20
90.0
 30
0.0
 11
130.0
 21
150.0
 31
0.0
  0
LINE
  5
318
100
AcDbEntity
100
AcDbLine
  8
0-UGrid Part1 InteriorEdges H5Fed
 62
256
370
-1
  6
ByLayer
 10
140.0
 20
90.0
 30
0.0
 11
200.0
 21
120.0
 31
0.0
  0
LINE
  5
319
100
AcDbEntity
100
AcDbLine
  8
0-UGrid Part1 OverlapEdges H5Fed
 62
256
370
-1
  6
ByLayer
 10
60.0
 20
-70.0
 30
0.0
 11
140.0
 21
-70.0
 31
0.0
  0
LINE
  5
31A
100
AcDbEntity
100
AcDbLine
  8
0-UGrid Part1 OverlapEdges H5Fed
 62
256
370
-1
  6
ByLayer
 10
140.0
 20
-70.0
 30
0.0
 11
90.0
 21
-10.0
 31
0.0
  0
LINE
  5
31B
100
AcDbEntity
100
AcDbLine
  8
0-UGrid Part1 OverlapEdges H5Fed
 62
256
370
-1
  6
ByLayer
 10
90.0
 20
-10.0
 30
0.0
 11
180.0
 21
-10.0
 31
0.0
  0
LINE
  5
31C
100
AcDbEntity
100
AcDbLine
  8
0-UGrid Part1 OverlapEdges H5Fed
 62
256
370
-1
  6
ByLayer
 10
180.0
 20
-10.0
 30
0.0
 11
140.0
 21
90.0
 31
0.0
  0
LINE
  5
31D
100
AcDbEntity
100
AcDbLine
  8
0-UGrid Part1 OverlapEdges H5Fed
 62
256
370
-1
  6
ByLayer
 10
180.0
 20
-10.0
 30
0.0
 11
220.0
 21
60.0
 31
0.0
  0
HATCH
  5
31E
  8
0-UGrid Part1 InteriorVertices H5Fed
 62
256
370
-1
  6
ByLayer
100
AcDbEntity
100
AcDbHatch
 10
0.0
 20
0.0
 30
0.0
210
0.0
220
0.0
230
1.0
  2
SOLID
 70
1
 71
0
 91
1
 92
1
 93
4
 72
2
 10
0.0
 20
0.0
 40
7.25
 50
0.0
 51
360.0
 73
1
 72
2
 10
200.0
 20
120.0
 40
7.25
 50
0.0
 51
360.0
 73
1
 72
2
 10
130.0
 20
150.0
 40
7.25
 50
0.0
 51
360.0
 73
1
 72
2
 10
50.0
 20
80.0
 40
7.25
 50
0.0
 51
360.0
 73
1
 97
0
 75
0
 76
1
 98
0
  0
HATCH
  5
31F
  8
0-UGrid Part1 FrontVertices H5Fed
 62
256
370
-1
  6
ByLayer
100
AcDbEntity
100
AcDbHatch
 10
0.0
 20
0.0
 30
0.0
210
0.0
220
0.0
230
1.0
  2
SOLID
 70
1
 71
0
 91
1
 92
1
 93
3
 72
2
 10
140.0
 20
-70.0
 40
7.25
 50
0.0
 51
360.0
 73
1
 72
2
 10
240.0
 20
-60.0
 40
7.25
 50
0.0
 51
360.0
 73
1
 72
2
 10
180.0
 20
-10.0
 40
7.25
 50
0.0
 51
360.0
 73
1
 97
0
 75
0
 76
1
 98
0
  0
CIRCLE
  5
320
100
AcDbEntity
100
AcDbCircle
  8
0-NGraph
 62
256
370
-1
  6
ByLayer
 10
60.0
 20
-70.0
 30
0.0
 40
7.25
  0
CIRCLE
  5
321
100
AcDbEntity
100
AcDbCircle
  8
0-NGraph
 62
256
370
-1
  6
ByLayer
 10
90.0
 20
-10.0
 30
0.0
 40
7.25
  0
CIRCLE
  5
322
100
AcDbEntity
100
AcDbCircle
  8
0-NGraph
 62
256
370
-1
  6
ByLayer
 10
90.0
 20
-10.0
 30
0.0
 40
7.25
  0
CIRCLE
  5
323
100
AcDbEntity
100
AcDbCircle
  8
0-NGraph
 62
256
370
-1
  6
ByLayer
 10
140.0
 20
90.0
 30
0.0
 40
7.25
  0
CIRCLE
  5
324
100
AcDbEntity
100
AcDbCircle
  8
0-NGraph
 62
256
370
-1
  6
ByLayer
 10
220.0
 20
60.0
 30
0.0
 40
7.25
  0
HATCH
  5
325
  8
0-UGrid Part1 BorderVertices H5Fed
 62
256
370
-1
  6
ByLayer
100
AcDbEntity
100
AcDbHatch
 10
0.0
 20
0.0
 30
0.0
210
0.0
220
0.0
230
1.0
  2
SOLID
 70
1
 71
0
 91
1
 92
1
 93
4
 72
2
 10
60.0
 20
-70.0
 40
7.25
 50
0.0
 51
360.0
 73
1
 72
2
 10
220.0
 20
60.0
 40
7.25
 50
0.0
 51
360.0
 73
1
 72
2
 10
140.0
 20
90.0
 40
7.25
 50
0.0
 51
360.0
 73
1
 72
2
 10
90.0
 20
-10.0
 40
7.25
 50
0.0
 51
360.0
 73
1
 97
0
 75
0
 76
1
 98
0
  0
LINE
  5
326
100
AcDbEntity
100
AcDbLine
  8
0-UGrid Part2 BorderEdges H5Fed
 62
256
370
-1
  6
ByLayer
 10
220.0
 20
60.0
 30
0.0
 11
140.0
 21
90.0
 31
0.0
  0
LINE
  5
327
100
AcDbEntity
100
AcDbLine
  8
0-UGrid Part2 BorderEdges H5Fed
 62
256
370
-1
  6
ByLayer
 10
140.0
 20
90.0
 30
0.0
 11
90.0
 21
-10.0
 31
0.0
  0
LINE
  5
328
100
AcDbEntity
100
AcDbLine
  8
0-UGrid Part2 BorderEdges H5Fed
 62
256
370
-1
  6
ByLayer
 10
90.0
 20
-10.0
 30
0.0
 11
60.0
 21
-70.0
 31
0.0
  0
LINE
  5
329
100
AcDbEntity
100
AcDbLine
  8
0-UGrid Part2 InteriorEdges H5Fed
 62
256
370
-1
  6
ByLayer
 10
180.0
 20
-10.0
 30
0.0
 11
220.0
 21
60.0
 31
0.0
  0
LINE
  5
32A
100
AcDbEntity
100
AcDbLine
  8
0-UGrid Part2 InteriorEdges H5Fed
 62
256
370
-1
  6
ByLayer
 10
220.0
 20
60.0
 30
0.0
 11
240.0
 21
-60.0
 31
0.0
  0
LINE
  5
32B
100
AcDbEntity
100
AcDbLine
  8
0-UGrid Part2 InteriorEdges H5Fed
 62
256
370
-1
  6
ByLayer
 10
240.0
 20
-60.0
 30
0.0
 11
180.0
 21
-10.0
 31
0.0
  0
LINE
  5
32C
100
AcDbEntity
100
AcDbLine
  8
0-UGrid Part2 InteriorEdges H5Fed
 62
256
370
-1
  6
ByLayer
 10
180.0
 20
-10.0
 30
0.0
 11
90.0
 21
-10.0
 31
0.0
  0
LINE
  5
32D
100
AcDbEntity
100
AcDbLine
  8
0-UGrid Part2 InteriorEdges H5Fed
 62
256
370
-1
  6
ByLayer
 10
90.0
 20
-10.0
 30
0.0
 11
140.0
 21
-70.0
 31
0.0
  0
LINE
  5
32E
100
AcDbEntity
100
AcDbLine
  8
0-UGrid Part2 InteriorEdges H5Fed
 62
256
370
-1
  6
ByLayer
 10
140.0
 20
-70.0
 30
0.0
 11
180.0
 21
-10.0
 31
0.0
  0
LINE
  5
32F
100
AcDbEntity
100
AcDbLine
  8
0-UGrid Part2 InteriorEdges H5Fed
 62
256
370
-1
  6
ByLayer
 10
180.0
 20
-10.0
 30
0.0
 11
140.0
 21
90.0
 31
0.0
  0
LINE
  5
330
100
AcDbEntity
100
AcDbLine
  8
0-UGrid Part2 InteriorEdges H5Fed
 62
256
370
-1
  6
ByLayer
 10
60.0
 20
-70.0
 30
0.0
 11
140.0
 21
-70.0
 31
0.0
  0
LINE
  5
331
100
AcDbEntity
100
AcDbLine
  8
0-UGrid Part2 InteriorEdges H5Fed
 62
256
370
-1
  6
ByLayer
 10
140.0
 20
-70.0
 30
0.0
 11
240.0
 21
-60.0
 31
0.0
  0
LINE
  5
332
100
AcDbEntity
100
AcDbLine
  8
0-UGrid Part2 OverlapEdges H5Fed
 62
256
370
-1
  6
ByLayer
 10
220.0
 20
60.0
 30
0.0
 11
200.0
 21
120.0
 31
0.0
  0
LINE
  5
333
100
AcDbEntity
100
AcDbLine
  8
0-UGrid Part2 OverlapEdges H5Fed
 62
256
370
-1
  6
ByLayer
 10
200.0
 20
120.0
 30
0.0
 11
140.0
 21
90.0
 31
0.0
  0
LINE
  5
334
100
AcDbEntity
100
AcDbLine
  8
0-UGrid Part2 OverlapEdges H5Fed
 62
256
370
-1
  6
ByLayer
 10
140.0
 20
90.0
 30
0.0
 11
50.0
 21
80.0
 31
0.0
  0
LINE
  5
335
100
AcDbEntity
100
AcDbLine
  8
0-UGrid Part2 OverlapEdges H5Fed
 62
256
370
-1
  6
ByLayer
 10
50.0
 20
80.0
 30
0.0
 11
90.0
 21
-10.0
 31
0.0
  0
LINE
  5
336
100
AcDbEntity
100
AcDbLine
  8
0-UGrid Part2 OverlapEdges H5Fed
 62
256
370
-1
  6
ByLayer
 10
90.0
 20
-10.0
 30
0.0
 11
0.0
 21
0.0
 31
0.0
  0
LINE
  5
337
100
AcDbEntity
100
AcDbLine
  8
0-UGrid Part2 OverlapEdges H5Fed
 62
256
370
-1
  6
ByLayer
 10
0.0
 20
0.0
 30
0.0
 11
60.0
 21
-70.0
 31
0.0
  0
LINE
  5
338
100
AcDbEntity
100
AcDbLine
  8
0-UGrid Part2 OverlapEdges H5Fed
 62
256
370
-1
  6
ByLayer
 10
0.0
 20
0.0
 30
0.0
 11
50.0
 21
80.0
 31
0.0
  0
LINE
  5
339
100
AcDbEntity
100
AcDbLine
  8
0-UGrid Part2 OverlapEdges H5Fed
 62
256
370
-1
  6
ByLayer
 10
50.0
 20
80.0
 30
0.0
 11
130.0
 21
150.0
 31
0.0
  0
LINE
  5
33A
100
AcDbEntity
100
AcDbLine
  8
0-UGrid Part2 OverlapEdges H5Fed
 62
256
370
-1
  6
ByLayer
 10
130.0
 20
150.0
 30
0.0
 11
200.0
 21
120.0
 31
0.0
  0
LINE
  5
33B
100
AcDbEntity
100
AcDbLine
  8
0-UGrid Part2 OverlapEdges H5Fed
 62
256
370
-1
  6
ByLayer
 10
140.0
 20
90.0
 30
0.0
 11
130.0
 21
150.0
 31
0.0
  0
LINE
  5
33C
100
AcDbEntity
100
AcDbLine
  8
0-UGrid Part2 BorderVertices H5Fed
 62
256
370
-1
  6
ByLayer
 10
227.25
 20
60.0
 30
0.0
 11
227.25
 21
60.0
 31
0.0
  0
HATCH
  5
33D
  8
0-UGrid Part2 BorderVertices H5Fed
 62
256
370
-1
  6
ByLayer
100
AcDbEntity
100
AcDbHatch
 10
0.0
 20
0.0
 30
0.0
210
0.0
220
0.0
230
1.0
  2
SOLID
 70
1
 71
0
 91
1
 92
1
 93
4
 72
2
 10
60.0
 20
-70.0
 40
7.25
 50
0.0
 51
360.0
 73
1
 72
2
 10
90.0
 20
-10.0
 40
7.25
 50
0.0
 51
360.0
 73
1
 72
2
 10
140.0
 20
90.0
 40
7.25
 50
0.0
 51
360.0
 73
1
 72
2
 10
220.0
 20
60.0
 40
7.25
 50
0.0
 51
360.0
 73
1
 97
0
 75
0
 76
1
 98
0
  0
HATCH
  5
33E
  8
0-UGrid Part2 InteriorVertices H5Fed
 62
256
370
-1
  6
ByLayer
100
AcDbEntity
100
AcDbHatch
 10
0.0
 20
0.0
 30
0.0
210
0.0
220
0.0
230
1.0
  2
SOLID
 70
1
 71
0
 91
1
 92
1
 93
3
 72
2
 10
140.0
 20
-70.0
 40
7.25
 50
0.0
 51
360.0
 73
1
 72
2
 10
240.0
 20
-60.0
 40
7.25
 50
0.0
 51
360.0
 73
1
 72
2
 10
180.0
 20
-10.0
 40
7.25
 50
0.0
 51
360.0
 73
1
 97
0
 75
0
 76
1
 98
0
  0
HATCH
  5
33F
  8
0-UGrid Part2 OverlapVertices H5Fed
 62
256
370
-1
  6
ByLayer
100
AcDbEntity
100
AcDbHatch
 10
0.0
 20
0.0
 30
0.0
210
0.0
220
0.0
230
1.0
  2
SOLID
 70
1
 71
0
 91
1
 92
1
 93
4
 72
2
 10
0.0
 20
0.0
 40
7.25
 50
0.0
 51
360.0
 73
1
 72
2
 10
200.0
 20
120.0
 40
7.25
 50
0.0
 51
360.0
 73
1
 72
2
 10
130.0
 20
150.0
 40
7.25
 50
0.0
 51
360.0
 73
1
 72
2
 10
50.0
 20
80.0
 40
7.25
 50
0.0
 51
360.0
 73
1
 97
0
 75
0
 76
1
 98
0
  0
LINE
  5
340
100
AcDbEntity
100
AcDbLine
  8
1-UGrid 0Part2 BorderEdges H5Fed
 62
256
370
-1
  6
ByLayer
 10
219.7987421383647586
 20
60.0754716981132191
 30
0.0
 11
180.0000175342504178
 21
74.9999934246560827
 31
0.0
  0
LINE
  5
341
100
AcDbEntity
100
AcDbLine
  8
1-UGrid 0Part2 BorderEdges H5Fed
 62
256
370
-1
  6
ByLayer
 10
180.0000175342504178
 20
74.9999934246560827
 30
0.0
 11
140.0
 21
90.0
 31
0.0
  0
LINE
  5
342
100
AcDbEntity
100
AcDbLine
  8
1-UGrid 0Part2 BorderEdges H5Fed
 62
256
370
-1
  6
ByLayer
 10
140.0
 20
90.0
 30
0.0
 11
115.0000891911591054
 21
40.0001783823182038
 31
0.0
  0
LINE
  5
343
100
AcDbEntity
100
AcDbLine
  8
1-UGrid 0Part2 BorderEdges H5Fed
 62
256
370
-1
  6
ByLayer
 10
115.0000891911591054
 20
40.0001783823182038
 30
0.0
 11
90.2000000000002018
 21
-9.5999999999995893
 31
0.0
  0
LINE
  5
344
100
AcDbEntity
100
AcDbLine
  8
1-UGrid 0Part2 BorderEdges H5Fed
 62
256
370
-1
  6
ByLayer
 10
90.2000000000002018
 20
-9.5999999999995893
 30
0.0
 11
60.0
 21
-70.0
 31
0.0
  0
LINE
  5
345
100
AcDbEntity
100
AcDbLine
  8
1-UGrid 0Part2 FrontEdges H5Fed
 62
256
370
-1
  6
ByLayer
 10
70.0
 20
35.0
 30
0.0
 11
95.0
 21
85.0
 31
0.0
  0
LINE
  5
346
100
AcDbEntity
100
AcDbLine
  8
1-UGrid 0Part2 FrontEdges H5Fed
 62
256
370
-1
  6
ByLayer
 10
95.0
 20
85.0
 30
0.0
 11
50.0
 21
80.0
 31
0.0
  0
LINE
  5
347
100
AcDbEntity
100
AcDbLine
  8
1-UGrid 0Part2 FrontEdges H5Fed
 62
256
370
-1
  6
ByLayer
 10
50.0
 20
80.0
 30
0.0
 11
70.0
 21
35.0
 31
0.0
  0
LINE
  5
348
100
AcDbEntity
100
AcDbLine
  8
1-UGrid 0Part2 InteriorEdges H5Fed
 62
256
370
-1
  6
ByLayer
 10
140.0
 20
90.0
 30
0.0
 11
159.9999450076830101
 21
40.0001374807924535
 31
0.0
  0
LINE
  5
349
100
AcDbEntity
100
AcDbLine
  8
1-UGrid 0Part2 InteriorEdges H5Fed
 62
256
370
-1
  6
ByLayer
 10
159.9999450076830101
 20
40.0001374807924535
 30
0.0
 11
180.0000175342504178
 21
74.9999934246560827
 31
0.0
  0
LINE
  5
34A
100
AcDbEntity
100
AcDbLine
  8
1-UGrid 0Part2 InteriorEdges H5Fed
 62
256
370
-1
  6
ByLayer
 10
180.0000175342504178
 20
74.9999934246560827
 30
0.0
 11
200.0
 21
25.0
 31
0.0
  0
LINE
  5
34B
100
AcDbEntity
100
AcDbLine
  8
1-UGrid 0Part2 InteriorEdges H5Fed
 62
256
370
-1
  6
ByLayer
 10
200.0
 20
25.0
 30
0.0
 11
219.7987421383647586
 21
60.0754716981132191
 31
0.0
  0
LINE
  5
34C
100
AcDbEntity
100
AcDbLine
  8
1-UGrid 0Part2 InteriorEdges H5Fed
 62
256
370
-1
  6
ByLayer
 10
219.7987421383647586
 20
60.0754716981132191
 30
0.0
 11
240.0
 21
-60.0
 31
0.0
  0
LINE
  5
34D
100
AcDbEntity
100
AcDbLine
  8
1-UGrid 0Part2 InteriorEdges H5Fed
 62
256
370
-1
  6
ByLayer
 10
240.0
 20
-60.0
 30
0.0
 11
180.0
 21
-10.0
 31
0.0
  0
LINE
  5
34E
100
AcDbEntity
100
AcDbLine
  8
1-UGrid 0Part2 InteriorEdges H5Fed
 62
256
370
-1
  6
ByLayer
 10
180.0
 20
-10.0
 30
0.0
 11
200.0
 21
25.0
 31
0.0
  0
LINE
  5
34F
100
AcDbEntity
100
AcDbLine
  8
1-UGrid 0Part2 InteriorEdges H5Fed
 62
256
370
-1
  6
ByLayer
 10
200.0
 20
25.0
 30
0.0
 11
159.9999450076830101
 21
40.0001374807924535
 31
0.0
  0
LINE
  5
350
100
AcDbEntity
100
AcDbLine
  8
1-UGrid 0Part2 InteriorEdges H5Fed
 62
256
370
-1
  6
ByLayer
 10
159.9999450076830101
 20
40.0001374807924535
 30
0.0
 11
180.0
 21
-10.0
 31
0.0
  0
LINE
  5
351
100
AcDbEntity
100
AcDbLine
  8
1-UGrid 0Part2 InteriorEdges H5Fed
 62
256
370
-1
  6
ByLayer
 10
180.0
 20
-10.0
 30
0.0
 11
135.0
 21
-10.0
 31
0.0
  0
LINE
  5
352
100
AcDbEntity
100
AcDbLine
  8
1-UGrid 0Part2 InteriorEdges H5Fed
 62
256
370
-1
  6
ByLayer
 10
135.0
 20
-10.0
 30
0.0
 11
159.9999450076830101
 21
40.0001374807924535
 31
0.0
  0
LINE
  5
353
100
AcDbEntity
100
AcDbLine
  8
1-UGrid 0Part2 InteriorEdges H5Fed
 62
256
370
-1
  6
ByLayer
 10
159.9999450076830101
 20
40.0001374807924535
 30
0.0
 11
115.0000891911591054
 21
40.0001783823182038
 31
0.0
  0
LINE
  5
354
100
AcDbEntity
100
AcDbLine
  8
1-UGrid 0Part2 InteriorEdges H5Fed
 62
256
370
-1
  6
ByLayer
 10
115.0000891911591054
 20
40.0001783823182038
 30
0.0
 11
134.9999999999999716
 21
-10.0000000000000249
 31
0.0
  0
LINE
  5
355
100
AcDbEntity
100
AcDbLine
  8
1-UGrid 0Part2 InteriorEdges H5Fed
 62
256
370
-1
  6
ByLayer
 10
134.9999999999999716
 20
-10.0000000000000249
 30
0.0
 11
90.0
 21
-10.0
 31
0.0
  0
LINE
  5
356
100
AcDbEntity
100
AcDbLine
  8
1-UGrid 0Part2 InteriorEdges H5Fed
 62
256
370
-1
  6
ByLayer
 10
90.0
 20
-10.0
 30
0.0
 11
114.9999989626024757
 21
-39.9999987551229736
 31
0.0
  0
LINE
  5
357
100
AcDbEntity
100
AcDbLine
  8
1-UGrid 0Part2 InteriorEdges H5Fed
 62
256
370
-1
  6
ByLayer
 10
114.9999989626024757
 20
-39.9999987551229736
 30
0.0
 11
135.0
 21
-10.0
 31
0.0
  0
LINE
  5
358
100
AcDbEntity
100
AcDbLine
  8
1-UGrid 0Part2 InteriorEdges H5Fed
 62
256
370
-1
  6
ByLayer
 10
135.0
 20
-10.0
 30
0.0
 11
159.9997155749006197
 21
-40.0004266376490492
 31
0.0
  0
LINE
  5
359
100
AcDbEntity
100
AcDbLine
  8
1-UGrid 0Part2 InteriorEdges H5Fed
 62
256
370
-1
  6
ByLayer
 10
159.9997155749006197
 20
-40.0004266376490492
 30
0.0
 11
114.9999989626024757
 21
-39.9999987551229736
 31
0.0
  0
LINE
  5
35A
100
AcDbEntity
100
AcDbLine
  8
1-UGrid 0Part2 InteriorEdges H5Fed
 62
256
370
-1
  6
ByLayer
 10
114.9999989626024757
 20
-39.9999987551229736
 30
0.0
 11
140.0
 21
-70.0
 31
0.0
  0
LINE
  5
35B
100
AcDbEntity
100
AcDbLine
  8
1-UGrid 0Part2 InteriorEdges H5Fed
 62
256
370
-1
  6
ByLayer
 10
140.0
 20
-70.0
 30
0.0
 11
159.9997155749006197
 21
-40.0004266376490492
 31
0.0
  0
LINE
  5
35C
100
AcDbEntity
100
AcDbLine
  8
1-UGrid 0Part2 InteriorEdges H5Fed
 62
256
370
-1
  6
ByLayer
 10
159.9997155749006197
 20
-40.0004266376490492
 30
0.0
 11
180.0
 21
-10.0
 31
0.0
  0
LINE
  5
35D
100
AcDbEntity
100
AcDbLine
  8
1-UGrid 0Part2 InteriorEdges H5Fed
 62
256
370
-1
  6
ByLayer
 10
60.0
 20
-70.0
 30
0.0
 11
140.0
 21
-70.0
 31
0.0
  0
LINE
  5
35E
100
AcDbEntity
100
AcDbLine
  8
1-UGrid 0Part2 InteriorEdges H5Fed
 62
256
370
-1
  6
ByLayer
 10
140.0
 20
-70.0
 30
0.0
 11
240.0
 21
-60.0
 31
0.0
  0
LINE
  5
35F
100
AcDbEntity
100
AcDbLine
  8
1-UGrid 0Part2 OverlapEdges H5Fed
 62
256
370
-1
  6
ByLayer
 10
60.0
 20
-70.0
 30
0.0
 11
0.0
 21
0.0
 31
0.0
  0
LINE
  5
360
100
AcDbEntity
100
AcDbLine
  8
1-UGrid 0Part2 OverlapEdges H5Fed
 62
256
370
-1
  6
ByLayer
 10
0.0
 20
0.0
 30
0.0
 11
50.0
 21
80.0
 31
0.0
  0
LINE
  5
361
100
AcDbEntity
100
AcDbLine
  8
1-UGrid 0Part2 OverlapEdges H5Fed
 62
256
370
-1
  6
ByLayer
 10
50.0
 20
80.0
 30
0.0
 11
130.0
 21
150.0
 31
0.0
  0
LINE
  5
362
100
AcDbEntity
100
AcDbLine
  8
1-UGrid 0Part2 OverlapEdges H5Fed
 62
256
370
-1
  6
ByLayer
 10
130.0
 20
150.0
 30
0.0
 11
200.0
 21
120.0
 31
0.0
  0
LINE
  5
363
100
AcDbEntity
100
AcDbLine
  8
1-UGrid 0Part2 OverlapEdges H5Fed
 62
256
370
-1
  6
ByLayer
 10
200.0
 20
120.0
 30
0.0
 11
140.0
 21
90.0
 31
0.0
  0
LINE
  5
364
100
AcDbEntity
100
AcDbLine
  8
1-UGrid 0Part2 OverlapEdges H5Fed
 62
256
370
-1
  6
ByLayer
 10
140.0
 20
90.0
 30
0.0
 11
95.0
 21
85.0
 31
0.0
  0
LINE
  5
365
100
AcDbEntity
100
AcDbLine
  8
1-UGrid 0Part2 OverlapEdges H5Fed
 62
256
370
-1
  6
ByLayer
 10
95.0
 20
85.0
 30
0.0
 11
115.0000891911591054
 21
40.0001783823182038
 31
0.0
  0
LINE
  5
366
100
AcDbEntity
100
AcDbLine
  8
1-UGrid 0Part2 OverlapEdges H5Fed
 62
256
370
-1
  6
ByLayer
 10
115.0000891911591054
 20
40.0001783823182038
 30
0.0
 11
70.0
 21
35.0
 31
0.0
  0
LINE
  5
367
100
AcDbEntity
100
AcDbLine
  8
1-UGrid 0Part2 OverlapEdges H5Fed
 62
256
370
-1
  6
ByLayer
 10
70.0
 20
35.0
 30
0.0
 11
90.0
 21
-10.0
 31
0.0
  0
LINE
  5
368
100
AcDbEntity
100
AcDbLine
  8
1-UGrid 0Part2 OverlapEdges H5Fed
 62
256
370
-1
  6
ByLayer
 10
90.0
 20
-10.0
 30
0.0
 11
0.0
 21
0.0
 31
0.0
  0
LINE
  5
369
100
AcDbEntity
100
AcDbLine
  8
1-UGrid 0Part2 OverlapEdges H5Fed
 62
256
370
-1
  6
ByLayer
 10
140.0
 20
90.0
 30
0.0
 11
130.0
 21
150.0
 31
0.0
  0
LINE
  5
36A
100
AcDbEntity
100
AcDbLine
  8
1-UGrid 0Part2 OverlapEdges H5Fed
 62
256
370
-1
  6
ByLayer
 10
220.0
 20
60.0
 30
0.0
 11
200.0
 21
120.0
 31
0.0
  0
LINE
  5
36B
100
AcDbEntity
100
AcDbLine
  8
1-UGrid 0Part2 BorderVertices H5Fed
 62
256
370
-1
  6
ByLayer
 10
227.25
 20
60.0
 30
0.0
 11
227.25
 21
60.0
 31
0.0
  0
HATCH
  5
36C
  8
1-UGrid 0Part2 BorderVertices H5Fed
 62
256
370
-1
  6
ByLayer
100
AcDbEntity
100
AcDbHatch
 10
0.0
 20
0.0
 30
0.0
210
0.0
220
0.0
230
1.0
  2
SOLID
 70
1
 71
0
 91
1
 92
1
 93
6
 72
2
 10
90.0
 20
-10.0
 40
7.25
 50
0.0
 51
360.0
 73
1
 72
2
 10
115.0000891911591054
 20
40.0001783823182038
 40
7.25
 50
0.0
 51
360.0
 73
1
 72
2
 10
140.0
 20
90.0
 40
7.25
 50
0.0
 51
360.0
 73
1
 72
2
 10
60.0
 20
-70.0
 40
7.25
 50
0.0
 51
360.0
 73
1
 72
2
 10
180.0000175342504178
 20
74.9999934246560969
 40
7.25
 50
0.0
 51
360.0
 73
1
 72
2
 10
220.0
 20
60.0
 40
7.25
 50
0.0
 51
360.0
 73
1
 97
0
 75
0
 76
1
 98
0
  0
HATCH
  5
36D
  8
1-UGrid 0Part2 FrontVertices H5Fed
 62
256
370
-1
  6
ByLayer
100
AcDbEntity
100
AcDbHatch
 10
0.0
 20
0.0
 30
0.0
210
0.0
220
0.0
230
1.0
  2
SOLID
 70
1
 71
0
 91
1
 92
1
 93
3
 72
2
 10
70.0
 20
35.0
 40
7.25
 50
0.0
 51
360.0
 73
1
 72
2
 10
95.0
 20
85.0
 40
7.25
 50
0.0
 51
360.0
 73
1
 72
2
 10
50.0
 20
80.0
 40
7.25
 50
0.0
 51
360.0
 73
1
 97
0
 75
0
 76
1
 98
0
  0
HATCH
  5
36E
  8
1-UGrid 0Part2 InteriorVertices H5Fed
 62
256
370
-1
  6
ByLayer
100
AcDbEntity
100
AcDbHatch
 10
0.0
 20
0.0
 30
0.0
210
0.0
220
0.0
230
1.0
  2
SOLID
 70
1
 71
0
 91
1
 92
1
 93
8
 72
2
 10
200.0
 20
25.0
 40
7.25
 50
0.0
 51
360.0
 73
1
 72
2
 10
140.0
 20
-70.0
 40
7.25
 50
0.0
 51
360.0
 73
1
 72
2
 10
159.9997155749006197
 20
-40.0004266376490492
 40
7.25
 50
0.0
 51
360.0
 73
1
 72
2
 10
114.9999989626024757
 20
-39.9999987551229665
 40
7.25
 50
0.0
 51
360.0
 73
1
 72
2
 10
135.0
 20
-10.0
 40
7.25
 50
0.0
 51
360.0
 73
1
 72
2
 10
180.0
 20
-10.0
 40
7.25
 50
0.0
 51
360.0
 73
1
 72
2
 10
240.0
 20
-60.0
 40
7.25
 50
0.0
 51
360.0
 73
1
 72
2
 10
159.9999450076830385
 20
40.0001374807924819
 40
7.25
 50
0.0
 51
360.0
 73
1
 97
0
 75
0
 76
1
 98
0
  0
HATCH
  5
36F
  8
1-UGrid 0Part2 OverlapVertices H5Fed
 62
256
370
-1
  6
ByLayer
100
AcDbEntity
100
AcDbHatch
 10
0.0
 20
0.0
 30
0.0
210
0.0
220
0.0
230
1.0
  2
SOLID
 70
1
 71
0
 91
1
 92
1
 93
3
 72
2
 10
130.0
 20
150.0
 40
7.25
 50
0.0
 51
360.0
 73
1
 72
2
 10
200.0
 20
120.0
 40
7.25
 50
0.0
 51
360.0
 73
1
 72
2
 10
0.0
 20
0.0
 40
7.25
 50
0.0
 51
360.0
 73
1
 97
0
 75
0
 76
1
 98
0
  0
LINE
  5
370
100
AcDbEntity
100
AcDbLine
  8
1-UGrid 0Part1 GhostEdges H5Fed
 62
256
370
-1
  6
ByLayer
 10
159.9999450076830385
 20
40.000137480792489
 30
0.0
 11
179.7347266203639151
 21
-9.336816550909802
 31
0.0
  0
LINE
  5
371
100
AcDbEntity
100
AcDbLine
  8
1-UGrid 0Part1 GhostEdges H5Fed
 62
256
370
-1
  6
ByLayer
 10
135.0
 20
-10.0
 30
0.0
 11
159.9997155749006197
 21
-40.0004266376490492
 31
0.0
  0
LINE
  5
372
100
AcDbEntity
100
AcDbLine
  8
1-UGrid 0Part1 GhostEdges H5Fed
 62
256
370
-1
  6
ByLayer
 10
159.9997155749006197
 20
-40.0004266376490492
 30
0.0
 11
114.9999989626024757
 21
-39.9999987551229736
 31
0.0
  0
LINE
  5
373
100
AcDbEntity
100
AcDbLine
  8
1-UGrid 0Part1 GhostEdges H5Fed
 62
256
370
-1
  6
ByLayer
 10
140.0
 20
-70.0
 30
0.0
 11
159.9997155749006197
 21
-40.0004266376490492
 31
0.0
  0
LINE
  5
374
100
AcDbEntity
100
AcDbLine
  8
1-UGrid 0Part1 GhostEdges H5Fed
 62
256
370
-1
  6
ByLayer
 10
159.9997155749006197
 20
-40.0004266376490492
 30
0.0
 11
180.0
 21
-10.0
 31
0.0
  0
HATCH
  5
375
  8
1-UGrid 0Part1 GhostVertices H5Fed
 62
256
370
-1
  6
ByLayer
100
AcDbEntity
100
AcDbHatch
 10
0.0
 20
0.0
 30
0.0
210
0.0
220
0.0
230
1.0
  2
SOLID
 70
1
 71
0
 91
1
 92
1
 93
1
 72
2
 10
159.9997155749006197
 20
-40.0004266376490492
 40
7.25
 50
0.0
 51
360.0
 73
1
 97
0
 75
0
 76
1
 98
0
  0
LINE
  5
376
100
AcDbEntity
100
AcDbLine
  8
1-UGrid 0Part1 GhostEdges H5Fed
 62
256
370
-1
  6
ByLayer
 10
180.0
 20
-10.0
 30
0.0
 11
135.0
 21
-10.0
 31
0.0
  0
HATCH
  5
377
  8
1-UGrid 0Part1 FrontVertices H5Fed
 62
256
370
-1
  6
ByLayer
100
AcDbEntity
100
AcDbHatch
 10
0.0
 20
0.0
 30
0.0
210
0.0
220
0.0
230
1.0
  2
SOLID
 70
1
 71
0
 91
1
 92
1
 93
7
 72
2
 10
200.0
 20
25.0
 40
7.25
 50
0.0
 51
360.0
 73
1
 72
2
 10
140.0
 20
-70.0
 40
7.25
 50
0.0
 51
360.0
 73
1
 72
2
 10
114.9999989626024757
 20
-39.9999987551229665
 40
7.25
 50
0.0
 51
360.0
 73
1
 72
2
 10
135.0
 20
-10.0
 40
7.25
 50
0.0
 51
360.0
 73
1
 72
2
 10
180.0
 20
-10.0
 40
7.25
 50
0.0
 51
360.0
 73
1
 72
2
 10
240.0
 20
-60.0
 40
7.25
 50
0.0
 51
360.0
 73
1
 72
2
 10
159.9999450076830385
 20
40.0001374807924819
 40
7.25
 50
0.0
 51
360.0
 73
1
 97
0
 75
0
 76
1
 98
0
  0
LINE
  5
378
100
AcDbEntity
100
AcDbLine
  8
1-UGrid 0Part1 InteriorEdges H5Fed
 62
256
370
-1
  6
ByLayer
 10
220.0
 20
60.0
 30
0.0
 11
200.0
 21
120.0
 31
0.0
  0
LINE
  5
379
100
AcDbEntity
100
AcDbLine
  8
1-UGrid 0Part1 InteriorEdges H5Fed
 62
256
370
-1
  6
ByLayer
 10
200.0
 20
120.0
 30
0.0
 11
140.0
 21
90.0
 31
0.0
  0
LINE
  5
37A
100
AcDbEntity
100
AcDbLine
  8
1-UGrid 0Part1 InteriorEdges H5Fed
 62
256
370
-1
  6
ByLayer
 10
140.0
 20
90.0
 30
0.0
 11
130.0
 21
150.0
 31
0.0
  0
LINE
  5
37B
100
AcDbEntity
100
AcDbLine
  8
1-UGrid 0Part1 InteriorEdges H5Fed
 62
256
370
-1
  6
ByLayer
 10
130.0
 20
150.0
 30
0.0
 11
200.0
 21
120.0
 31
0.0
  0
LINE
  5
37C
100
AcDbEntity
100
AcDbLine
  8
1-UGrid 0Part1 InteriorEdges H5Fed
 62
256
370
-1
  6
ByLayer
 10
130.0
 20
150.0
 30
0.0
 11
50.0
 21
80.0
 31
0.0
  0
LINE
  5
37D
100
AcDbEntity
100
AcDbLine
  8
1-UGrid 0Part1 InteriorEdges H5Fed
 62
256
370
-1
  6
ByLayer
 10
50.0
 20
80.0
 30
0.0
 11
0.0
 21
0.0
 31
0.0
  0
LINE
  5
37E
100
AcDbEntity
100
AcDbLine
  8
1-UGrid 0Part1 InteriorEdges H5Fed
 62
256
370
-1
  6
ByLayer
 10
0.0
 20
0.0
 30
0.0
 11
90.0
 21
-10.0
 31
0.0
  0
LINE
  5
37F
100
AcDbEntity
100
AcDbLine
  8
1-UGrid 0Part1 InteriorEdges H5Fed
 62
256
370
-1
  6
ByLayer
 10
90.0
 20
-10.0
 30
0.0
 11
70.0
 21
35.0
 31
0.0
  0
LINE
  5
380
100
AcDbEntity
100
AcDbLine
  8
1-UGrid 0Part1 InteriorEdges H5Fed
 62
256
370
-1
  6
ByLayer
 10
70.0
 20
35.0
 30
0.0
 11
50.0
 21
80.0
 31
0.0
  0
LINE
  5
381
100
AcDbEntity
100
AcDbLine
  8
1-UGrid 0Part1 InteriorEdges H5Fed
 62
256
370
-1
  6
ByLayer
 10
50.0
 20
80.0
 30
0.0
 11
102.20565707638373
 21
85.8006285640426398
 31
0.0
  0
LINE
  5
382
100
AcDbEntity
100
AcDbLine
  8
1-UGrid 0Part1 InteriorEdges H5Fed
 62
256
370
-1
  6
ByLayer
 10
102.20565707638373
 20
85.8006285640426398
 30
0.0
 11
140.0
 21
89.9999999999999858
 31
0.0
  0
LINE
  5
383
100
AcDbEntity
100
AcDbLine
  8
1-UGrid 0Part1 InteriorEdges H5Fed
 62
256
370
-1
  6
ByLayer
 10
115.0000891911591054
 20
40.0001783823182038
 30
0.0
 11
95.0
 21
85.0
 31
0.0
  0
LINE
  5
384
100
AcDbEntity
100
AcDbLine
  8
1-UGrid 0Part1 InteriorEdges H5Fed
 62
256
370
-1
  6
ByLayer
 10
95.0
 20
85.0
 30
0.0
 11
70.0
 21
35.0
 31
0.0
  0
LINE
  5
385
100
AcDbEntity
100
AcDbLine
  8
1-UGrid 0Part1 InteriorEdges H5Fed
 62
256
370
-1
  6
ByLayer
 10
70.0
 20
35.0
 30
0.0
 11
115.0000891911591054
 21
40.0001783823182038
 31
0.0
  0
LINE
  5
386
100
AcDbEntity
100
AcDbLine
  8
1-UGrid 0Part1 InteriorEdges H5Fed
 62
256
370
-1
  6
ByLayer
 10
0.0
 20
0.0
 30
0.0
 11
60.0
 21
-70.0
 31
0.0
  0
HATCH
  5
387
  8
1-UGrid 0Part1 BorderVertices H5Fed
 62
256
370
-1
  6
ByLayer
100
AcDbEntity
100
AcDbHatch
 10
0.0
 20
0.0
 30
0.0
210
0.0
220
0.0
230
1.0
  2
SOLID
 70
1
 71
0
 91
1
 92
1
 93
6
 72
2
 10
90.0
 20
-10.0
 40
7.25
 50
0.0
 51
360.0
 73
1
 72
2
 10
115.0000891911591054
 20
40.0001783823182038
 40
7.25
 50
0.0
 51
360.0
 73
1
 72
2
 10
140.0
 20
90.0
 40
7.25
 50
0.0
 51
360.0
 73
1
 72
2
 10
60.0
 20
-70.0
 40
7.25
 50
0.0
 51
360.0
 73
1
 72
2
 10
180.0000175342504178
 20
74.9999934246560969
 40
7.25
 50
0.0
 51
360.0
 73
1
 72
2
 10
220.0
 20
60.0
 40
7.25
 50
0.0
 51
360.0
 73
1
 97
0
 75
0
 76
1
 98
0
  0
MTEXT
  5
388
100
AcDbEntity
100
AcDbMText
  8
0-DGraph Vertex Idx
 62
256
370
-1
  6
ByLayer
 10
52.4994856366487497
 20
-27.617758389235437
 30
0.0
 40
3.0
 41
100.0
 71
5
 72
2
  1
0
  7
greeks
 50
0.0
 73
0
 44
1.0
  0
MTEXT
  5
389
100
AcDbEntity
100
AcDbMText
  8
0-DGraph Vertex Idx
 62
256
370
-1
  6
ByLayer
 10
95.5541397758186974
 20
-47.1056544732807936
 30
0.0
 40
3.0
 41
100.0
 71
5
 72
2
  1
1
  7
greeks
 50
0.0
 73
0
 44
1.0
  0
MTEXT
  5
38A
100
AcDbEntity
100
AcDbMText
  8
0-DGraph Vertex Idx
 62
256
370
-1
  6
ByLayer
 10
136.3427594866113282
 20
-28.52417216058641
 30
0.0
 40
3.0
 41
100.0
 71
5
 72
2
  1
2
  7
greeks
 50
0.0
 73
0
 44
1.0
  0
MTEXT
  5
38B
100
AcDbEntity
100
AcDbMText
  8
0-DGraph Vertex Idx
 62
256
370
-1
  6
ByLayer
 10
185.2891031395623713
 20
-43.0267925022015305
 30
0.0
 40
3.0
 41
100.0
 71
5
 72
2
  1
3
  7
greeks
 50
0.0
 73
0
 44
1.0
  0
MTEXT
  5
38C
100
AcDbEntity
100
AcDbMText
  8
0-DGraph Vertex Idx
 62
256
370
-1
  6
ByLayer
 10
209.7622749660378929
 20
-1.784965905733471
 30
0.0
 40
3.0
 41
100.0
 71
5
 72
2
  1
4
  7
greeks
 50
0.0
 73
0
 44
1.0
  0
MTEXT
  5
38D
100
AcDbEntity
100
AcDbMText
  8
0-DGraph Vertex Idx
 62
256
370
-1
  6
ByLayer
 10
179.3974136257813257
 20
48.9742052899195457
 30
0.0
 40
3.0
 41
100.0
 71
5
 72
2
  1
5
  7
greeks
 50
0.0
 73
0
 44
1.0
  0
MTEXT
  5
38E
100
AcDbEntity
100
AcDbMText
  8
0-DGraph Vertex Idx
 62
256
370
-1
  6
ByLayer
 10
188.4615513392906792
 20
91.5756525434139803
 30
0.0
 40
3.0
 41
100.0
 71
5
 72
2
  1
6
  7
greeks
 50
0.0
 73
0
 44
1.0
  0
MTEXT
  5
38F
100
AcDbEntity
100
AcDbMText
  8
0-DGraph Vertex Idx
 62
256
370
-1
  6
ByLayer
 10
155.8306555706566314
 20
119.2212725696178381
 30
0.0
 40
3.0
 41
100.0
 71
5
 72
2
  1
7
  7
greeks
 50
0.0
 73
0
 44
1.0
  0
MTEXT
  5
390
100
AcDbEntity
100
AcDbMText
  8
0-DGraph Vertex Idx
 62
256
370
-1
  6
ByLayer
 10
110.056760117433825
 20
107.4378935420555763
 30
0.0
 40
3.0
 41
100.0
 71
5
 72
2
  1
8
  7
greeks
 50
0.0
 73
0
 44
1.0
  0
MTEXT
  5
391
100
AcDbEntity
100
AcDbMText
  8
0-DGraph Vertex Idx
 62
256
370
-1
  6
ByLayer
 10
94.1945191187922575
 20
56.3523231977330994
 30
0.0
 40
3.0
 41
100.0
 71
5
 72
2
  1
9
  7
greeks
 50
0.0
 73
0
 44
1.0
  0
MTEXT
  5
392
100
AcDbEntity
100
AcDbMText
  8
0-DGraph Vertex Idx
 62
256
370
-1
  6
ByLayer
 10
46.6077961228675974
 20
23.1414128064175415
 30
0.0
 40
3.0
 41
100.0
 71
5
 72
2
  1
10
  7
greeks
 50
0.0
 73
0
 44
1.0
  0
MTEXT
  5
393
100
AcDbEntity
100
AcDbMText
  8
0-DGraph Vertex Idx
 62
256
370
-1
  6
ByLayer
 10
136.3427594866114418
 20
24.047826577768511
 30
0.0
 40
3.0
 41
100.0
 71
5
 72
2
  1
11
  7
greeks
 50
0.0
 73
0
 44
1.0
  0
MTEXT
  5
394
100
AcDbEntity
100
AcDbMText
  8
0-NGraph Vertex Idx
 62
256
370
-1
  6
ByLayer
 10
-0.3333333333333712
 20
0.5
 30
0.0
 40
3.0
 41
100.0
 71
5
 72
2
  1
0
  7
normal
 50
0.0
 73
0
 44
1.0
  0
MTEXT
  5
395
100
AcDbEntity
100
AcDbMText
  8
0-NGraph Vertex Idx
 62
256
370
-1
  6
ByLayer
 10
59.6666666666666643
 20
-69.5
 30
0.0
 40
3.0
 41
100.0
 71
5
 72
2
  1
1
  7
normal
 50
0.0
 73
0
 44
1.0
  0
MTEXT
  5
396
100
AcDbEntity
100
AcDbMText
  8
0-NGraph Vertex Idx
 62
256
370
-1
  6
ByLayer
 10
89.6666666666666572
 20
-9.5
 30
0.0
 40
3.0
 41
100.0
 71
5
 72
2
  1
2
  7
normal
 50
0.0
 73
0
 44
1.0
  0
MTEXT
  5
397
100
AcDbEntity
100
AcDbMText
  8
0-NGraph Vertex Idx
 62
256
370
-1
  6
ByLayer
 10
139.6666666666666572
 20
-69.5
 30
0.0
 40
3.0
 41
100.0
 71
5
 72
2
  1
3
  7
normal
 50
0.0
 73
0
 44
1.0
  0
MTEXT
  5
398
100
AcDbEntity
100
AcDbMText
  8
0-NGraph Vertex Idx
 62
256
370
-1
  6
ByLayer
 10
179.6666666666666572
 20
-9.5
 30
0.0
 40
3.0
 41
100.0
 71
5
 72
2
  1
4
  7
greeks
 50
0.0
 73
0
 44
1.0
  0
MTEXT
  5
399
100
AcDbEntity
100
AcDbMText
  8
0-NGraph Vertex Idx
 62
256
370
-1
  6
ByLayer
 10
239.6666666666666288
 20
-59.5
 30
0.0
 40
3.0
 41
100.0
 71
5
 72
2
  1
5
  7
normal
 50
0.0
 73
0
 44
1.0
  0
MTEXT
  5
39A
100
AcDbEntity
100
AcDbMText
  8
0-NGraph Vertex Idx
 62
256
370
-1
  6
ByLayer
 10
219.6666666666666288
 20
60.5
 30
0.0
 40
3.0
 41
100.0
 71
5
 72
2
  1
6
  7
normal
 50
0.0
 73
0
 44
1.0
  0
MTEXT
  5
39B
100
AcDbEntity
100
AcDbMText
  8
0-NGraph Vertex Idx
 62
256
370
-1
  6
ByLayer
 10
139.6666666666666288
 20
90.5
 30
0.0
 40
3.0
 41
100.0
 71
5
 72
2
  1
7
  7
normal
 50
0.0
 73
0
 44
1.0
  0
MTEXT
  5
39C
100
AcDbEntity
100
AcDbMText
  8
0-NGraph Vertex Idx
 62
256
370
-1
  6
ByLayer
 10
199.6666666666666288
 20
120.5
 30
0.0
 40
3.0
 41
100.0
 71
5
 72
2
  1
8
  7
normal
 50
0.0
 73
0
 44
1.0
  0
MTEXT
  5
39D
100
AcDbEntity
100
AcDbMText
  8
0-NGraph Vertex Idx
 62
256
370
-1
  6
ByLayer
 10
129.6666666666666288
 20
150.5
 30
0.0
 40
3.0
 41
100.0
 71
5
 72
2
  1
9
  7
normal
 50
0.0
 73
0
 44
1.0
  0
MTEXT
  5
39E
100
AcDbEntity
100
AcDbMText
  8
0-NGraph Vertex Idx
 62
256
370
-1
  6
ByLayer
 10
49.6666666666666288
 20
80.5
 30
0.0
 40
3.0
 41
100.0
 71
5
 72
2
  1
10
  7
normal
 50
0.0
 73
0
 44
1.0
  0
MTEXT
  5
39F
100
AcDbEntity
100
AcDbMText
  8
0-UGrid Edge Idx
 62
256
370
-1
  6
ByLayer
 10
25.3795855978264058
 20
-41.2418265964679094
 30
0.0
 40
3.0
 41
100.0
 71
1
 72
2
  1
e[0]
  7
normal
 50
0.0
 73
0
 44
1.0
  0
MTEXT
  5
3A0
100
AcDbEntity
100
AcDbMText
  8
0-UGrid Edge Idx
 62
256
370
-1
  6
ByLayer
 10
45.3206885675471511
 20
-8.6109308278339594
 30
0.0
 40
3.0
 41
100.0
 71
1
 72
2
  1
e[1]
  7
normal
 50
0.0
 73
0
 44
1.0
  0
MTEXT
  5
3A1
100
AcDbEntity
100
AcDbMText
  8
0-UGrid Edge Idx
 62
256
370
-1
  6
ByLayer
 10
67.9810328513207196
 20
-36.70975773971319
 30
0.0
 40
3.0
 41
100.0
 71
1
 72
2
  1
e[2]
  7
normal
 50
0.0
 73
0
 44
1.0
  0
MTEXT
  5
3A2
100
AcDbEntity
100
AcDbMText
  8
0-UGrid Edge Idx
 62
256
370
-1
  6
ByLayer
 10
119.6466178183244722
 20
-37.1629646253886605
 30
0.0
 40
3.0
 41
100.0
 71
1
 72
2
  1
e[3]
  7
normal
 50
0.0
 73
0
 44
1.0
  0
MTEXT
  5
3A3
100
AcDbEntity
100
AcDbMText
  8
0-UGrid Edge Idx
 62
256
370
-1
  6
ByLayer
 10
97.4394804202263742
 20
-74.325929250777321
 30
0.0
 40
3.0
 41
100.0
 71
1
 72
2
  1
e[4]
  7
normal
 50
0.0
 73
0
 44
1.0
  0
MTEXT
  5
3A4
100
AcDbEntity
100
AcDbMText
  8
0-UGrid Edge Idx
 62
256
370
-1
  6
ByLayer
 10
164.5140995001961528
 20
-40.3354128251169612
 30
0.0
 40
3.0
 41
100.0
 71
1
 72
2
  1
e[5]
  7
normal
 50
0.0
 73
0
 44
1.0
  0
MTEXT
  5
3A5
100
AcDbEntity
100
AcDbMText
  8
0-UGrid Edge Idx
 62
256
370
-1
  6
ByLayer
 10
132.7896175029131598
 20
-12.6897927989132029
 30
0.0
 40
3.0
 41
100.0
 71
1
 72
2
  1
e[6]
  7
normal
 50
0.0
 73
0
 44
1.0
  0
MTEXT
  5
3A6
100
AcDbEntity
100
AcDbMText
  8
0-UGrid Edge Idx
 62
256
370
-1
  6
ByLayer
 10
208.0219605250414077
 20
-24.4731718264754612
 30
0.0
 40
3.0
 41
100.0
 71
1
 72
2
  1
e[7]
  7
normal
 50
0.0
 73
0
 44
1.0
  0
MTEXT
  5
3A7
100
AcDbEntity
100
AcDbMText
  8
0-UGrid Edge Idx
 62
256
370
-1
  6
ByLayer
 10
188.0808575553206765
 20
-68.8874466226716748
 30
0.0
 40
3.0
 41
100.0
 71
1
 72
2
  1
e[8]
  7
normal
 50
0.0
 73
0
 44
1.0
  0
MTEXT
  5
3A8
100
AcDbEntity
100
AcDbMText
  8
0-UGrid Edge Idx
 62
256
370
-1
  6
ByLayer
 10
236.5739943225961213
 20
2.7192413140528289
 30
0.0
 40
3.0
 41
100.0
 71
1
 72
2
  1
e[9]
  7
normal
 50
0.0
 73
0
 44
1.0
  0
MTEXT
  5
3A9
100
AcDbEntity
100
AcDbMText
  8
0-UGrid Edge Idx
 62
256
370
-1
  6
ByLayer
 10
199.8642365828829384
 20
19.0346891983698043
 30
0.0
 40
3.0
 41
100.0
 71
1
 72
2
  1
e[10]
  7
normal
 50
0.0
 73
0
 44
1.0
  0
MTEXT
  5
3AA
100
AcDbEntity
100
AcDbMText
  8
0-UGrid Edge Idx
 62
256
370
-1
  6
ByLayer
 10
178.1103060704602967
 20
71.6066879367244979
 30
0.0
 40
3.0
 41
100.0
 71
1
 72
2
  1
e[11]
  7
normal
 50
0.0
 73
0
 44
1.0
  0
MTEXT
  5
3AB
100
AcDbEntity
100
AcDbMText
  8
0-UGrid Edge Idx
 62
256
370
-1
  6
ByLayer
 10
165.8737201572225786
 20
37.1629646253886605
 30
0.0
 40
3.0
 41
100.0
 71
1
 72
2
  1
e[12]
  7
normal
 50
0.0
 73
0
 44
1.0
  0
MTEXT
  5
3AC
100
AcDbEntity
100
AcDbMText
  8
0-UGrid Edge Idx
 62
256
370
-1
  6
ByLayer
 10
214.8200638101734796
 20
92.9074115634716549
 30
0.0
 40
3.0
 41
100.0
 71
1
 72
2
  1
e[13]
  7
normal
 50
0.0
 73
0
 44
1.0
  0
MTEXT
  5
3AD
100
AcDbEntity
100
AcDbMText
  8
0-UGrid Edge Idx
 62
256
370
-1
  6
ByLayer
 10
175.8442716420829299
 20
104.2375837053584462
 30
0.0
 40
3.0
 41
100.0
 71
1
 72
2
  1
e[14]
  7
normal
 50
0.0
 73
0
 44
1.0
  0
MTEXT
  5
3AE
100
AcDbEntity
100
AcDbMText
  8
0-UGrid Edge Idx
 62
256
370
-1
  6
ByLayer
 10
165.8737201572225786
 20
141.8537552164225701
 30
0.0
 40
3.0
 41
100.0
 71
1
 72
2
  1
e[15]
  7
normal
 50
0.0
 73
0
 44
1.0
  0
MTEXT
  5
3AF
100
AcDbEntity
100
AcDbMText
  8
0-UGrid Edge Idx
 62
256
370
-1
  6
ByLayer
 10
138.6813070166942907
 20
125.9915142177810736
 30
0.0
 40
3.0
 41
100.0
 71
1
 72
2
  1
e[16]
  7
normal
 50
0.0
 73
0
 44
1.0
  0
MTEXT
  5
3B0
100
AcDbEntity
100
AcDbMText
  8
0-UGrid Edge Idx
 62
256
370
-1
  6
ByLayer
 10
91.5477909064452433
 20
80.6708256502339225
 30
0.0
 40
3.0
 41
100.0
 71
1
 72
2
  1
e[17]
  7
normal
 50
0.0
 73
0
 44
1.0
  0
MTEXT
  5
3B1
100
AcDbEntity
100
AcDbMText
  8
0-UGrid Edge Idx
 62
256
370
-1
  6
ByLayer
 10
80.6708256502339225
 20
121.4594453610263685
 30
0.0
 40
3.0
 41
100.0
 71
1
 72
2
  1
e[18]
  7
normal
 50
0.0
 73
0
 44
1.0
  0
MTEXT
  5
3B2
100
AcDbEntity
100
AcDbMText
  8
0-UGrid Edge Idx
 62
256
370
-1
  6
ByLayer
 10
115.114548961569767
 20
31.2712751116075331
 30
0.0
 40
3.0
 41
100.0
 71
1
 72
2
  1
e[19]
  7
normal
 50
0.0
 73
0
 44
1.0
  0
MTEXT
  5
3B3
100
AcDbEntity
100
AcDbMText
  8
0-UGrid Edge Idx
 62
256
370
-1
  6
ByLayer
 10
73.8727223651018505
 20
39.8822059394414907
 30
0.0
 40
3.0
 41
100.0
 71
1
 72
2
  1
e[20]
  7
normal
 50
0.0
 73
0
 44
1.0
  0
MTEXT
  5
3B4
100
AcDbEntity
100
AcDbMText
  8
0-UGrid Edge Idx
 62
256
370
-1
  6
ByLayer
 10
14.955827227290559
 20
39.8822059394414907
 30
0.0
 40
3.0
 41
100.0
 71
1
 72
2
  1
e[21]
  7
normal
 50
0.0
 73
0
 44
1.0
  0
MTEXT
  5
3B5
100
AcDbEntity
100
AcDbMText
  8
0-UGrid Triangle IDs
 62
256
370
-1
  6
ByLayer
 10
52.4994856366487497
 20
-27.617758389235437
 30
0.0
 40
3.0
 41
100.0
 71
5
 72
2
  1
D0
  7
greeks
 50
0.0
 73
0
 44
1.0
  0
MTEXT
  5
3B6
100
AcDbEntity
100
AcDbMText
  8
0-UGrid Triangle IDs
 62
256
370
-1
  6
ByLayer
 10
95.5541397758186974
 20
-47.1056544732807936
 30
0.0
 40
3.0
 41
100.0
 71
5
 72
2
  1
D1
  7
greeks
 50
0.0
 73
0
 44
1.0
  0
MTEXT
  5
3B7
100
AcDbEntity
100
AcDbMText
  8
0-UGrid Triangle IDs
 62
256
370
-1
  6
ByLayer
 10
136.3427594866113282
 20
-28.52417216058641
 30
0.0
 40
3.0
 41
100.0
 71
5
 72
2
  1
D2
  7
greeks
 50
0.0
 73
0
 44
1.0
  0
MTEXT
  5
3B8
100
AcDbEntity
100
AcDbMText
  8
0-UGrid Triangle IDs
 62
256
370
-1
  6
ByLayer
 10
185.2891031395623713
 20
-43.0267925022015305
 30
0.0
 40
3.0
 41
100.0
 71
5
 72
2
  1
D3
  7
greeks
 50
0.0
 73
0
 44
1.0
  0
MTEXT
  5
3B9
100
AcDbEntity
100
AcDbMText
  8
0-UGrid Triangle IDs
 62
256
370
-1
  6
ByLayer
 10
209.7622749660378929
 20
-1.784965905733471
 30
0.0
 40
3.0
 41
100.0
 71
5
 72
2
  1
D4
  7
greeks
 50
0.0
 73
0
 44
1.0
  0
MTEXT
  5
3BA
100
AcDbEntity
100
AcDbMText
  8
0-UGrid Triangle IDs
 62
256
370
-1
  6
ByLayer
 10
179.3974136257813257
 20
48.9742052899195457
 30
0.0
 40
3.0
 41
100.0
 71
5
 72
2
  1
D5
  7
greeks
 50
0.0
 73
0
 44
1.0
  0
MTEXT
  5
3BB
100
AcDbEntity
100
AcDbMText
  8
0-UGrid Triangle IDs
 62
256
370
-1
  6
ByLayer
 10
188.4615513392906792
 20
91.5756525434139803
 30
0.0
 40
3.0
 41
100.0
 71
5
 72
2
  1
D6
  7
greeks
 50
0.0
 73
0
 44
1.0
  0
MTEXT
  5
3BC
100
AcDbEntity
100
AcDbMText
  8
0-UGrid Triangle IDs
 62
256
370
-1
  6
ByLayer
 10
155.8306555706566314
 20
119.2212725696178381
 30
0.0
 40
3.0
 41
100.0
 71
5
 72
2
  1
D7
  7
greeks
 50
0.0
 73
0
 44
1.0
  0
MTEXT
  5
3BD
100
AcDbEntity
100
AcDbMText
  8
0-UGrid Triangle IDs
 62
256
370
-1
  6
ByLayer
 10
110.056760117433825
 20
107.4378935420555763
 30
0.0
 40
3.0
 41
100.0
 71
5
 72
2
  1
D8
  7
greeks
 50
0.0
 73
0
 44
1.0
  0
MTEXT
  5
3BE
100
AcDbEntity
100
AcDbMText
  8
0-UGrid Triangle IDs
 62
256
370
-1
  6
ByLayer
 10
94.1945191187922575
 20
56.3523231977330994
 30
0.0
 40
3.0
 41
100.0
 71
5
 72
2
  1
D9
  7
greeks
 50
0.0
 73
0
 44
1.0
  0
MTEXT
  5
3BF
100
AcDbEntity
100
AcDbMText
  8
0-UGrid Triangle IDs
 62
256
370
-1
  6
ByLayer
 10
46.6077961228675974
 20
23.1414128064175415
 30
0.0
 40
3.0
 41
100.0
 71
5
 72
2
  1
D10
  7
greeks
 50
0.0
 73
0
 44
1.0
  0
MTEXT
  5
3C0
100
AcDbEntity
100
AcDbMText
  8
0-UGrid Triangle IDs
 62
256
370
-1
  6
ByLayer
 10
136.3427594866114418
 20
24.047826577768511
 30
0.0
 40
3.0
 41
100.0
 71
5
 72
2
  1
D11
  7
greeks
 50
0.0
 73
0
 44
1.0
  0
MTEXT
  5
3C1
100
AcDbEntity
100
AcDbMText
  8
1-DGraph Vertex Idx
 62
256
370
-1
  6
ByLayer
 10
52.4994856366487497
 20
-27.617758389235437
 30
0.0
 40
3.0
 41
100.0
 71
5
 72
2
  1
0
  7
greeks
 50
0.0
 73
0
 44
1.0
  0
MTEXT
  5
3C2
100
AcDbEntity
100
AcDbMText
  8
1-DGraph Vertex Idx
 62
256
370
-1
  6
ByLayer
 10
95.5541397758186974
 20
-47.1056544732807936
 30
0.0
 40
3.0
 41
100.0
 71
5
 72
2
  1
1
  7
greeks
 50
0.0
 73
0
 44
1.0
  0
MTEXT
  5
3C3
100
AcDbEntity
100
AcDbMText
  8
1-DGraph Vertex Idx
 62
256
370
-1
  6
ByLayer
 10
185.2891031395623713
 20
-43.0267925022015305
 30
0.0
 40
3.0
 41
100.0
 71
5
 72
2
  1
2
  7
greeks
 50
0.0
 73
0
 44
1.0
  0
MTEXT
  5
3C4
100
AcDbEntity
100
AcDbMText
  8
1-DGraph Vertex Idx
 62
256
370
-1
  6
ByLayer
 10
209.7622749660378929
 20
-1.784965905733471
 30
0.0
 40
3.0
 41
100.0
 71
5
 72
2
  1
3
  7
greeks
 50
0.0
 73
0
 44
1.0
  0
MTEXT
  5
3C5
100
AcDbEntity
100
AcDbMText
  8
1-DGraph Vertex Idx
 62
256
370
-1
  6
ByLayer
 10
188.4615513392906792
 20
91.5756525434139803
 30
0.0
 40
3.0
 41
100.0
 71
5
 72
2
  1
4
  7
greeks
 50
0.0
 73
0
 44
1.0
  0
MTEXT
  5
3C6
100
AcDbEntity
100
AcDbMText
  8
1-DGraph Vertex Idx
 62
256
370
-1
  6
ByLayer
 10
155.8306555706566314
 20
119.2212725696178381
 30
0.0
 40
3.0
 41
100.0
 71
5
 72
2
  1
5
  7
greeks
 50
0.0
 73
0
 44
1.0
  0
MTEXT
  5
3C7
100
AcDbEntity
100
AcDbMText
  8
1-DGraph Vertex Idx
 62
256
370
-1
  6
ByLayer
 10
110.056760117433825
 20
107.4378935420555763
 30
0.0
 40
3.0
 41
100.0
 71
5
 72
2
  1
6
  7
greeks
 50
0.0
 73
0
 44
1.0
  0
MTEXT
  5
3C8
100
AcDbEntity
100
AcDbMText
  8
1-DGraph Vertex Idx
 62
256
370
-1
  6
ByLayer
 10
46.6077961228675974
 20
23.1414128064175415
 30
0.0
 40
3.0
 41
100.0
 71
5
 72
2
  1
7
  7
greeks
 50
0.0
 73
0
 44
1.0
  0
MTEXT
  5
3C9
100
AcDbEntity
100
AcDbMText
  8
1-DGraph Vertex Idx
 62
256
370
-1
  6
ByLayer
 10
114.1356220885131449
 20
-20.8196551041033544
 30
0.0
 40
3.0
 41
100.0
 71
5
 72
2
  1
8
  7
greeks
 50
0.0
 73
0
 44
1.0
  0
MTEXT
  5
3CA
100
AcDbEntity
100
AcDbMText
  8
1-DGraph Vertex Idx
 62
256
370
-1
  6
ByLayer
 10
138.608793914988695
 20
-50.7313095586845932
 30
0.0
 40
3.0
 41
100.0
 71
5
 72
2
  1
9
  7
greeks
 50
0.0
 73
0
 44
1.0
  0
MTEXT
  5
3CB
100
AcDbEntity
100
AcDbMText
  8
1-DGraph Vertex Idx
 62
256
370
-1
  6
ByLayer
 10
158.0966899990340835
 20
-20.8196551041033544
 30
0.0
 40
3.0
 41
100.0
 71
5
 72
2
  1
10
  7
greeks
 50
0.0
 73
0
 44
1.0
  0
MTEXT
  5
3CC
100
AcDbEntity
100
AcDbMText
  8
1-DGraph Vertex Idx
 62
256
370
-1
  6
ByLayer
 10
136.3427594866113282
 20
-28.52417216058641
 30
0.0
 40
3.0
 41
100.0
 71
5
 72
2
  1
11
  7
greeks
 50
0.0
 73
0
 44
1.0
  0
MTEXT
  5
3CD
100
AcDbEntity
100
AcDbMText
  8
1-DGraph Vertex Idx
 62
256
370
-1
  6
ByLayer
 10
162.1755519701133039
 20
68.0088944882894282
 30
0.0
 40
3.0
 41
100.0
 71
5
 72
2
  1
12
  7
greeks
 50
0.0
 73
0
 44
1.0
  0
MTEXT
  5
3CE
100
AcDbEntity
100
AcDbMText
  8
1-DGraph Vertex Idx
 62
256
370
-1
  6
ByLayer
 10
181.2102411684832077
 20
19.5157577210137774
 30
0.0
 40
3.0
 41
100.0
 71
5
 72
2
  1
13
  7
greeks
 50
0.0
 73
0
 44
1.0
  0
MTEXT
  5
3CF
100
AcDbEntity
100
AcDbMText
  8
1-DGraph Vertex Idx
 62
256
370
-1
  6
ByLayer
 10
202.0577579095549936
 20
54.4126879180252203
 30
0.0
 40
3.0
 41
100.0
 71
5
 72
2
  1
14
  7
greeks
 50
0.0
 73
0
 44
1.0
  0
MTEXT
  5
3D0
100
AcDbEntity
100
AcDbMText
  8
1-DGraph Vertex Idx
 62
256
370
-1
  6
ByLayer
 10
179.3974136257813257
 20
48.9742052899195457
 30
0.0
 40
3.0
 41
100.0
 71
5
 72
2
  1
15
  7
greeks
 50
0.0
 73
0
 44
1.0
  0
MTEXT
  5
3D1
100
AcDbEntity
100
AcDbMText
  8
1-DGraph Vertex Idx
 62
256
370
-1
  6
ByLayer
 10
113.6824152028377455
 20
8.1855855791269434
 30
0.0
 40
3.0
 41
100.0
 71
5
 72
2
  1
16
  7
greeks
 50
0.0
 73
0
 44
1.0
  0
MTEXT
  5
3D2
100
AcDbEntity
100
AcDbMText
  8
1-DGraph Vertex Idx
 62
256
370
-1
  6
ByLayer
 10
138.1555870293133239
 20
55.7723085750516745
 30
0.0
 40
3.0
 41
100.0
 71
5
 72
2
  1
17
  7
greeks
 50
0.0
 73
0
 44
1.0
  0
MTEXT
  5
3D3
100
AcDbEntity
100
AcDbMText
  8
1-DGraph Vertex Idx
 62
256
370
-1
  6
ByLayer
 10
158.0966899990341403
 20
7.2791718077760024
 30
0.0
 40
3.0
 41
100.0
 71
5
 72
2
  1
18
  7
greeks
 50
0.0
 73
0
 44
1.0
  0
MTEXT
  5
3D4
100
AcDbEntity
100
AcDbMText
  8
1-DGraph Vertex Idx
 62
256
370
-1
  6
ByLayer
 10
136.3427594866114418
 20
24.047826577768511
 30
0.0
 40
3.0
 41
100.0
 71
5
 72
2
  1
19
  7
greeks
 50
0.0
 73
0
 44
1.0
  0
MTEXT
  5
3D5
100
AcDbEntity
100
AcDbMText
  8
1-DGraph Vertex Idx
 62
256
370
-1
  6
ByLayer
 10
70.1745541779922775
 20
68.4621013739649413
 30
0.0
 40
3.0
 41
100.0
 71
5
 72
2
  1
20
  7
greeks
 50
0.0
 73
0
 44
1.0
  0
MTEXT
  5
3D6
100
AcDbEntity
100
AcDbMText
  8
1-DGraph Vertex Idx
 62
256
370
-1
  6
ByLayer
 10
91.0220709190640633
 20
23.1414128064175699
 30
0.0
 40
3.0
 41
100.0
 71
5
 72
2
  1
21
  7
greeks
 50
0.0
 73
0
 44
1.0
  0
MTEXT
  5
3D7
100
AcDbEntity
100
AcDbMText
  8
1-DGraph Vertex Idx
 62
256
370
-1
  6
ByLayer
 10
115.4952427455396275
 20
72.0877564593687339
 30
0.0
 40
3.0
 41
100.0
 71
5
 72
2
  1
22
  7
greeks
 50
0.0
 73
0
 44
1.0
  0
MTEXT
  5
3D8
100
AcDbEntity
100
AcDbMText
  8
1-DGraph Vertex Idx
 62
256
370
-1
  6
ByLayer
 10
94.1945191187922575
 20
56.3523231977330994
 30
0.0
 40
3.0
 41
100.0
 71
5
 72
2
  1
23
  7
greeks
 50
0.0
 73
0
 44
1.0
  0
MTEXT
  5
3D9
100
AcDbEntity
100
AcDbMText
  8
1-NGraph Vertex Idx
 62
256
370
-1
  6
ByLayer
 10
-0.3333333333333712
 20
0.5
 30
0.0
 40
3.0
 41
100.0
 71
5
 72
2
  1
0
  7
normal
 50
0.0
 73
0
 44
1.0
  0
MTEXT
  5
3DA
100
AcDbEntity
100
AcDbMText
  8
1-NGraph Vertex Idx
 62
256
370
-1
  6
ByLayer
 10
59.6666666666666643
 20
-69.5
 30
0.0
 40
3.0
 41
100.0
 71
5
 72
2
  1
1
  7
normal
 50
0.0
 73
0
 44
1.0
  0
MTEXT
  5
3DB
100
AcDbEntity
100
AcDbMText
  8
1-NGraph Vertex Idx
 62
256
370
-1
  6
ByLayer
 10
89.6666666666666572
 20
-9.5
 30
0.0
 40
3.0
 41
100.0
 71
5
 72
2
  1
2
  7
normal
 50
0.0
 73
0
 44
1.0
  0
MTEXT
  5
3DC
100
AcDbEntity
100
AcDbMText
  8
1-NGraph Vertex Idx
 62
256
370
-1
  6
ByLayer
 10
139.6666666666666572
 20
-69.5
 30
0.0
 40
3.0
 41
100.0
 71
5
 72
2
  1
3
  7
normal
 50
0.0
 73
0
 44
1.0
  0
MTEXT
  5
3DD
100
AcDbEntity
100
AcDbMText
  8
1-NGraph Vertex Idx
 62
256
370
-1
  6
ByLayer
 10
179.6666666666666572
 20
-9.5
 30
0.0
 40
3.0
 41
100.0
 71
5
 72
2
  1
4
  7
normal
 50
0.0
 73
0
 44
1.0
  0
MTEXT
  5
3DE
100
AcDbEntity
100
AcDbMText
  8
1-NGraph Vertex Idx
 62
256
370
-1
  6
ByLayer
 10
239.6666666666666288
 20
-59.5
 30
0.0
 40
3.0
 41
100.0
 71
5
 72
2
  1
5
  7
normal
 50
0.0
 73
0
 44
1.0
  0
MTEXT
  5
3DF
100
AcDbEntity
100
AcDbMText
  8
1-NGraph Vertex Idx
 62
256
370
-1
  6
ByLayer
 10
219.6666666666666288
 20
60.5
 30
0.0
 40
3.0
 41
100.0
 71
5
 72
2
  1
6
  7
normal
 50
0.0
 73
0
 44
1.0
  0
MTEXT
  5
3E0
100
AcDbEntity
100
AcDbMText
  8
1-NGraph Vertex Idx
 62
256
370
-1
  6
ByLayer
 10
139.6666666666666288
 20
90.5
 30
0.0
 40
3.0
 41
100.0
 71
5
 72
2
  1
7
  7
normal
 50
0.0
 73
0
 44
1.0
  0
MTEXT
  5
3E1
100
AcDbEntity
100
AcDbMText
  8
1-NGraph Vertex Idx
 62
256
370
-1
  6
ByLayer
 10
199.6666666666666288
 20
120.5
 30
0.0
 40
3.0
 41
100.0
 71
5
 72
2
  1
8
  7
normal
 50
0.0
 73
0
 44
1.0
  0
MTEXT
  5
3E2
100
AcDbEntity
100
AcDbMText
  8
1-NGraph Vertex Idx
 62
256
370
-1
  6
ByLayer
 10
129.6666666666666288
 20
150.5
 30
0.0
 40
3.0
 41
100.0
 71
5
 72
2
  1
9
  7
normal
 50
0.0
 73
0
 44
1.0
  0
MTEXT
  5
3E3
100
AcDbEntity
100
AcDbMText
  8
1-NGraph Vertex Idx
 62
256
370
-1
  6
ByLayer
 10
49.6666666666666288
 20
80.5
 30
0.0
 40
3.0
 41
100.0
 71
5
 72
2
  1
10
  7
normal
 50
0.0
 73
0
 44
1.0
  0
MTEXT
  5
3E4
100
AcDbEntity
100
AcDbMText
  8
1-NGraph Vertex Idx
 62
256
370
-1
  6
ByLayer
 10
114.6667558578257342
 20
40.5001783823182038
 30
0.0
 40
3.0
 41
100.0
 71
5
 72
2
  1
11
  7
normal
 50
0.0
 73
0
 44
1.0
  0
MTEXT
  5
3E5
100
AcDbEntity
100
AcDbMText
  8
1-NGraph Vertex Idx
 62
256
370
-1
  6
ByLayer
 10
95.0
 20
85.0
 30
0.0
 40
3.0
 41
100.0
 71
5
 72
2
  1
12
  7
normal
 50
0.0
 73
0
 44
1.0
  0
MTEXT
  5
3E6
100
AcDbEntity
100
AcDbMText
  8
1-NGraph Vertex Idx
 62
256
370
-1
  6
ByLayer
 10
70.1835145864434651
 20
35.1647746245767863
 30
0.0
 40
3.0
 41
100.0
 71
5
 72
2
  1
13
  7
normal
 50
0.0
 73
0
 44
1.0
  0
MTEXT
  5
3E7
100
AcDbEntity
100
AcDbMText
  8
1-NGraph Vertex Idx
 62
256
370
-1
  6
ByLayer
 10
159.6663822415672769
 20
-39.5004266376490492
 30
0.0
 40
3.0
 41
100.0
 71
5
 72
2
  1
14
  7
normal
 50
0.0
 73
0
 44
1.0
  0
MTEXT
  5
3E8
100
AcDbEntity
100
AcDbMText
  8
1-NGraph Vertex Idx
 62
256
370
-1
  6
ByLayer
 10
134.6666666666666572
 20
-9.5
 30
0.0
 40
3.0
 41
100.0
 71
5
 72
2
  1
15
  7
normal
 50
0.0
 73
0
 44
1.0
  0
MTEXT
  5
3E9
100
AcDbEntity
100
AcDbMText
  8
1-NGraph Vertex Idx
 62
256
370
-1
  6
ByLayer
 10
114.6666656292691329
 20
-39.4999987551229665
 30
0.0
 40
3.0
 41
100.0
 71
5
 72
2
  1
16
  7
normal
 50
0.0
 73
0
 44
1.0
  0
MTEXT
  5
3EA
100
AcDbEntity
100
AcDbMText
  8
1-NGraph Vertex Idx
 62
256
370
-1
  6
ByLayer
 10
199.6666666666666288
 20
25.5
 30
0.0
 40
3.0
 41
100.0
 71
5
 72
2
  1
17
  7
normal
 50
0.0
 73
0
 44
1.0
  0
MTEXT
  5
3EB
100
AcDbEntity
100
AcDbMText
  8
1-NGraph Vertex Idx
 62
256
370
-1
  6
ByLayer
 10
179.6666842009170466
 20
75.4999934246560969
 30
0.0
 40
3.0
 41
100.0
 71
5
 72
2
  1
18
  7
normal
 50
0.0
 73
0
 44
1.0
  0
MTEXT
  5
3EC
100
AcDbEntity
100
AcDbMText
  8
1-NGraph Vertex Idx
 62
256
370
-1
  6
ByLayer
 10
159.6666116743496673
 20
40.5001374807924819
 30
0.0
 40
3.0
 41
100.0
 71
5
 72
2
  1
19
  7
normal
 50
0.0
 73
0
 44
1.0
  0
MTEXT
  5
3ED
100
AcDbEntity
100
AcDbMText
  8
1-UGrid Edge Idx
 62
256
370
-1
  6
ByLayer
 10
66.349488062889165
 20
-39.5196404309011982
 30
0.0
 40
3.0
 41
100.0
 71
1
 72
2
  1
e[0]
  7
normal
 50
0.0
 73
0
 44
1.0
  0
MTEXT
  5
3EE
100
AcDbEntity
100
AcDbMText
  8
1-UGrid Edge Idx
 62
256
370
-1
  6
ByLayer
 10
43.8704265333857322
 20
-7.976441187888315
 30
0.0
 40
3.0
 41
100.0
 71
1
 72
2
  1
e[1]
  7
normal
 50
0.0
 73
0
 44
1.0
  0
MTEXT
  5
3EF
100
AcDbEntity
100
AcDbMText
  8
1-UGrid Edge Idx
 62
256
370
-1
  6
ByLayer
 10
25.0170200892860777
 20
-40.6073369565223317
 30
0.0
 40
3.0
 41
100.0
 71
1
 72
2
  1
e[2]
  7
normal
 50
0.0
 73
0
 44
1.0
  0
MTEXT
  5
3F0
100
AcDbEntity
100
AcDbMText
  8
1-UGrid Edge Idx
 62
256
370
-1
  6
ByLayer
 10
114.5707006987594383
 20
-52.9345642468951851
 30
0.0
 40
3.0
 41
100.0
 71
1
 72
2
  1
e[3]
  7
normal
 50
0.0
 73
0
 44
1.0
  0
MTEXT
  5
3F1
100
AcDbEntity
100
AcDbMText
  8
1-UGrid Edge Idx
 62
256
370
-1
  6
ByLayer
 10
92.0916391692559984
 20
-73.6007982336967217
 30
0.0
 40
3.0
 41
100.0
 71
1
 72
2
  1
e[4]
  7
normal
 50
0.0
 73
0
 44
1.0
  0
MTEXT
  5
3F2
100
AcDbEntity
100
AcDbMText
  8
1-UGrid Edge Idx
 62
256
370
-1
  6
ByLayer
 10
202.6741192740712734
 20
-36.6191163625781755
 30
0.0
 40
3.0
 41
100.0
 71
1
 72
2
  1
e[5]
  7
normal
 50
0.0
 73
0
 44
1.0
  0
MTEXT
  5
3F3
100
AcDbEntity
100
AcDbMText
  8
1-UGrid Edge Idx
 62
256
370
-1
  6
ByLayer
 10
182.0078852872697439
 20
-70.700274165373699
 30
0.0
 40
3.0
 41
100.0
 71
1
 72
2
  1
e[6]
  7
normal
 50
0.0
 73
0
 44
1.0
  0
MTEXT
  5
3F4
100
AcDbEntity
100
AcDbMText
  8
1-UGrid Edge Idx
 62
256
370
-1
  6
ByLayer
 10
157.7159962150644219
 20
-49.6714746700317775
 30
0.0
 40
3.0
 41
100.0
 71
1
 72
2
  1
e[7]
  7
normal
 50
0.0
 73
0
 44
1.0
  0
MTEXT
  5
3F5
100
AcDbEntity
100
AcDbMText
  8
1-UGrid Edge Idx
 62
256
370
-1
  6
ByLayer
 10
235.6675805512456634
 20
-7.2513101708075594
 30
0.0
 40
3.0
 41
100.0
 71
1
 72
2
  1
e[8]
  7
normal
 50
0.0
 73
0
 44
1.0
  0
MTEXT
  5
3F6
100
AcDbEntity
100
AcDbMText
  8
1-UGrid Edge Idx
 62
256
370
-1
  6
ByLayer
 10
199.7735952057482507
 20
13.777489324534363
 30
0.0
 40
3.0
 41
100.0
 71
1
 72
2
  1
e[9]
  7
normal
 50
0.0
 73
0
 44
1.0
  0
MTEXT
  5
3F7
100
AcDbEntity
100
AcDbMText
  8
1-UGrid Edge Idx
 62
256
370
-1
  6
ByLayer
 10
215.7264775815248754
 20
88.46598408385222
 30
0.0
 40
3.0
 41
100.0
 71
1
 72
2
  1
e[10]
  7
normal
 50
0.0
 73
0
 44
1.0
  0
MTEXT
  5
3F8
100
AcDbEntity
100
AcDbMText
  8
1-UGrid Edge Idx
 62
256
370
-1
  6
ByLayer
 10
190.7094574922388119
 20
77.9515843361812557
 30
0.0
 40
3.0
 41
100.0
 71
1
 72
2
  1
e[11]
  7
normal
 50
0.0
 73
0
 44
1.0
  0
MTEXT
  5
3F9
100
AcDbEntity
100
AcDbMText
  8
1-UGrid Edge Idx
 62
256
370
-1
  6
ByLayer
 10
173.6688785908410466
 20
102.9686044254673476
 30
0.0
 40
3.0
 41
100.0
 71
1
 72
2
  1
e[12]
  7
normal
 50
0.0
 73
0
 44
1.0
  0
MTEXT
  5
3FA
100
AcDbEntity
100
AcDbMText
  8
1-UGrid Edge Idx
 62
256
370
-1
  6
ByLayer
 10
173.6688785908410466
 20
140.3128518051262574
 30
0.0
 40
3.0
 41
100.0
 71
1
 72
2
  1
e[13]
  7
normal
 50
0.0
 73
0
 44
1.0
  0
MTEXT
  5
3FB
100
AcDbEntity
100
AcDbMText
  8
1-UGrid Edge Idx
 62
256
370
-1
  6
ByLayer
 10
138.5000242624243754
 20
125.0851004464304026
 30
0.0
 40
3.0
 41
100.0
 71
1
 72
2
  1
e[14]
  7
normal
 50
0.0
 73
0
 44
1.0
  0
MTEXT
  5
3FC
100
AcDbEntity
100
AcDbMText
  8
1-UGrid Edge Idx
 62
256
370
-1
  6
ByLayer
 10
93.5419012034175097
 20
93.9044667119578946
 30
0.0
 40
3.0
 41
100.0
 71
1
 72
2
  1
e[15]
  7
normal
 50
0.0
 73
0
 44
1.0
  0
MTEXT
  5
3FD
100
AcDbEntity
100
AcDbMText
  8
1-UGrid Edge Idx
 62
256
370
-1
  6
ByLayer
 10
94.6295977290386503
 20
129.7984520574553073
 30
0.0
 40
3.0
 41
100.0
 71
1
 72
2
  1
e[16]
  7
normal
 50
0.0
 73
0
 44
1.0
  0
MTEXT
  5
3FE
100
AcDbEntity
100
AcDbMText
  8
1-UGrid Edge Idx
 62
256
370
-1
  6
ByLayer
 10
51.8468677212740516
 20
49.3089091614913997
 30
0.0
 40
3.0
 41
100.0
 71
1
 72
2
  1
e[17]
  7
normal
 50
0.0
 73
0
 44
1.0
  0
MTEXT
  5
3FF
100
AcDbEntity
100
AcDbMText
  8
1-UGrid Edge Idx
 62
256
370
-1
  6
ByLayer
 10
23.5667580551245663
 20
54.7473917895970743
 30
0.0
 40
3.0
 41
100.0
 71
1
 72
2
  1
e[18]
  7
normal
 50
0.0
 73
0
 44
1.0
  0
MTEXT
  5
400
100
AcDbEntity
100
AcDbMText
  8
1-UGrid Edge Idx
 62
256
370
-1
  6
ByLayer
 10
116.3835282414613204
 20
-24.291889072205322
 30
0.0
 40
3.0
 41
100.0
 71
1
 72
2
  1
e[19]
  7
normal
 50
0.0
 73
0
 44
1.0
  0
MTEXT
  5
401
100
AcDbEntity
100
AcDbMText
  8
1-UGrid Edge Idx
 62
256
370
-1
  6
ByLayer
 10
106.9568250194114967
 20
-13.0523583074536074
 30
0.0
 40
3.0
 41
100.0
 71
1
 72
2
  1
e[20]
  7
normal
 50
0.0
 73
0
 44
1.0
  0
MTEXT
  5
402
100
AcDbEntity
100
AcDbMText
  8
1-UGrid Edge Idx
 62
256
370
-1
  6
ByLayer
 10
105.1439974767096146
 20
-23.9293235636649442
 30
0.0
 40
3.0
 41
100.0
 71
1
 72
2
  1
e[21]
  7
normal
 50
0.0
 73
0
 44
1.0
  0
MTEXT
  5
403
100
AcDbEntity
100
AcDbMText
  8
1-UGrid Edge Idx
 62
256
370
-1
  6
ByLayer
 10
140.3128518051262574
 20
-54.7473917895970743
 30
0.0
 40
3.0
 41
100.0
 71
1
 72
2
  1
e[22]
  7
normal
 50
0.0
 73
0
 44
1.0
  0
MTEXT
  5
404
100
AcDbEntity
100
AcDbMText
  8
1-UGrid Edge Idx
 62
256
370
-1
  6
ByLayer
 10
131.9738451086975886
 20
-42.7827300077645987
 30
0.0
 40
3.0
 41
100.0
 71
1
 72
2
  1
e[23]
  7
normal
 50
0.0
 73
0
 44
1.0
  0
MTEXT
  5
405
100
AcDbEntity
100
AcDbMText
  8
1-UGrid Edge Idx
 62
256
370
-1
  6
ByLayer
 10
128.7107555318341667
 20
-52.2094332298144295
 30
0.0
 40
3.0
 41
100.0
 71
1
 72
2
  1
e[24]
  7
normal
 50
0.0
 73
0
 44
1.0
  0
MTEXT
  5
406
100
AcDbEntity
100
AcDbMText
  8
1-UGrid Edge Idx
 62
256
370
-1
  6
ByLayer
 10
160.9790857919278153
 20
-25.0170200892860777
 30
0.0
 40
3.0
 41
100.0
 71
1
 72
2
  1
e[25]
  7
normal
 50
0.0
 73
0
 44
1.0
  0
MTEXT
  5
407
100
AcDbEntity
100
AcDbMText
  8
1-UGrid Edge Idx
 62
256
370
-1
  6
ByLayer
 10
151.5523825698779774
 20
-12.6897927989132278
 30
0.0
 40
3.0
 41
100.0
 71
1
 72
2
  1
e[26]
  7
normal
 50
0.0
 73
0
 44
1.0
  0
MTEXT
  5
408
100
AcDbEntity
100
AcDbMText
  8
1-UGrid Edge Idx
 62
256
370
-1
  6
ByLayer
 10
149.7395550271760953
 20
-21.3913650038822993
 30
0.0
 40
3.0
 41
100.0
 71
1
 72
2
  1
e[27]
  7
normal
 50
0.0
 73
0
 44
1.0
  0
MTEXT
  5
409
100
AcDbEntity
100
AcDbMText
  8
1-UGrid Edge Idx
 62
256
370
-1
  6
ByLayer
 10
162.0667823175489559
 20
61.6361364518642532
 30
0.0
 40
3.0
 41
100.0
 71
1
 72
2
  1
e[28]
  7
normal
 50
0.0
 73
0
 44
1.0
  0
MTEXT
  5
40A
100
AcDbEntity
100
AcDbMText
  8
1-UGrid Edge Idx
 62
256
370
-1
  6
ByLayer
 10
157.3534307065240228
 20
79.0392808618023963
 30
0.0
 40
3.0
 41
100.0
 71
1
 72
2
  1
e[29]
  7
normal
 50
0.0
 73
0
 44
1.0
  0
MTEXT
  5
40B
100
AcDbEntity
100
AcDbMText
  8
1-UGrid Edge Idx
 62
256
370
-1
  6
ByLayer
 10
149.3769895186357246
 20
72.875667216615966
 30
0.0
 40
3.0
 41
100.0
 71
1
 72
2
  1
e[30]
  7
normal
 50
0.0
 73
0
 44
1.0
  0
MTEXT
  5
40C
100
AcDbEntity
100
AcDbMText
  8
1-UGrid Edge Idx
 62
256
370
-1
  6
ByLayer
 10
182.7330163043504854
 20
11.2395307647517164
 30
0.0
 40
3.0
 41
100.0
 71
1
 72
2
  1
e[31]
  7
normal
 50
0.0
 73
0
 44
1.0
  0
MTEXT
  5
40D
100
AcDbEntity
100
AcDbMText
  8
1-UGrid Edge Idx
 62
256
370
-1
  6
ByLayer
 10
181.6453197787293448
 20
30.0929372088513709
 30
0.0
 40
3.0
 41
100.0
 71
1
 72
2
  1
e[32]
  7
normal
 50
0.0
 73
0
 44
1.0
  0
MTEXT
  5
40E
100
AcDbEntity
100
AcDbMText
  8
1-UGrid Edge Idx
 62
256
370
-1
  6
ByLayer
 10
170.4057890139776532
 20
24.6544545807456998
 30
0.0
 40
3.0
 41
100.0
 71
1
 72
2
  1
e[33]
  7
normal
 50
0.0
 73
0
 44
1.0
  0
MTEXT
  5
40F
100
AcDbEntity
100
AcDbMText
  8
1-UGrid Edge Idx
 62
256
370
-1
  6
ByLayer
 10
203.0366847826116441
 20
47.1335161102491327
 30
0.0
 40
3.0
 41
100.0
 71
1
 72
2
  1
e[34]
  7
normal
 50
0.0
 73
0
 44
1.0
  0
MTEXT
  5
410
100
AcDbEntity
100
AcDbMText
  8
1-UGrid Edge Idx
 62
256
370
-1
  6
ByLayer
 10
201.223857239909762
 20
62.7238329774853867
 30
0.0
 40
3.0
 41
100.0
 71
1
 72
2
  1
e[35]
  7
normal
 50
0.0
 73
0
 44
1.0
  0
MTEXT
  5
411
100
AcDbEntity
100
AcDbMText
  8
1-UGrid Edge Idx
 62
256
370
-1
  6
ByLayer
 10
190.7094574922388119
 20
59.0981778920816083
 30
0.0
 40
3.0
 41
100.0
 71
1
 72
2
  1
e[36]
  7
normal
 50
0.0
 73
0
 44
1.0
  0
MTEXT
  5
412
100
AcDbEntity
100
AcDbMText
  8
1-UGrid Edge Idx
 62
256
370
-1
  6
ByLayer
 10
121.822010869566995
 20
2.5379585597826457
 30
0.0
 40
3.0
 41
100.0
 71
1
 72
2
  1
e[37]
  7
normal
 50
0.0
 73
0
 44
1.0
  0
MTEXT
  5
413
100
AcDbEntity
100
AcDbMText
  8
1-UGrid Edge Idx
 62
256
370
-1
  6
ByLayer
 10
106.231694002330741
 20
15.5903168672362522
 30
0.0
 40
3.0
 41
100.0
 71
1
 72
2
  1
e[38]
  7
normal
 50
0.0
 73
0
 44
1.0
  0
MTEXT
  5
414
100
AcDbEntity
100
AcDbMText
  8
1-UGrid Edge Idx
 62
256
370
-1
  6
ByLayer
 10
135.236934685560982
 20
45.3206885675472435
 30
0.0
 40
3.0
 41
100.0
 71
1
 72
2
  1
e[39]
  7
normal
 50
0.0
 73
0
 44
1.0
  0
MTEXT
  5
415
100
AcDbEntity
100
AcDbMText
  8
1-UGrid Edge Idx
 62
256
370
-1
  6
ByLayer
 10
126.5353624805919139
 20
58.7356123835412305
 30
0.0
 40
3.0
 41
100.0
 71
1
 72
2
  1
e[40]
  7
normal
 50
0.0
 73
0
 44
1.0
  0
MTEXT
  5
416
100
AcDbEntity
100
AcDbMText
  8
1-UGrid Edge Idx
 62
256
370
-1
  6
ByLayer
 10
150.8272515527972359
 20
13.0523583074536074
 30
0.0
 40
3.0
 41
100.0
 71
1
 72
2
  1
e[41]
  7
normal
 50
0.0
 73
0
 44
1.0
  0
MTEXT
  5
417
100
AcDbEntity
100
AcDbMText
  8
1-UGrid Edge Idx
 62
256
370
-1
  6
ByLayer
 10
73.9633637422371066
 20
64.5366605201872829
 30
0.0
 40
3.0
 41
100.0
 71
1
 72
2
  1
e[42]
  7
normal
 50
0.0
 73
0
 44
1.0
  0
MTEXT
  5
418
100
AcDbEntity
100
AcDbMText
  8
1-UGrid Edge Idx
 62
256
370
-1
  6
ByLayer
 10
76.1387567934793736
 20
80.1269773874235227
 30
0.0
 40
3.0
 41
100.0
 71
1
 72
2
  1
e[43]
  7
normal
 50
0.0
 73
0
 44
1.0
  0
MTEXT
  5
419
100
AcDbEntity
100
AcDbMText
  8
1-UGrid Edge Idx
 62
256
370
-1
  6
ByLayer
 10
61.2735709433238753
 20
64.174095011646898
 30
0.0
 40
3.0
 41
100.0
 71
1
 72
2
  1
e[44]
  7
normal
 50
0.0
 73
0
 44
1.0
  0
MTEXT
  5
41A
100
AcDbEntity
100
AcDbMText
  8
1-UGrid Edge Idx
 62
256
370
-1
  6
ByLayer
 10
89.5536806094733606
 20
36.2565508540377976
 30
0.0
 40
3.0
 41
100.0
 71
1
 72
2
  1
e[45]
  7
normal
 50
0.0
 73
0
 44
1.0
  0
MTEXT
  5
41B
100
AcDbEntity
100
AcDbMText
  8
1-UGrid Edge Idx
 62
256
370
-1
  6
ByLayer
 10
79.401846370342767
 20
20.6662339868015437
 30
0.0
 40
3.0
 41
100.0
 71
1
 72
2
  1
e[46]
  7
normal
 50
0.0
 73
0
 44
1.0
  0
MTEXT
  5
41C
100
AcDbEntity
100
AcDbMText
  8
1-UGrid Edge Idx
 62
256
370
-1
  6
ByLayer
 10
116.3835282414613204
 20
83.7526324728273153
 30
0.0
 40
3.0
 41
100.0
 71
1
 72
2
  1
e[47]
  7
normal
 50
0.0
 73
0
 44
1.0
  0
MTEXT
  5
41D
100
AcDbEntity
100
AcDbMText
  8
1-UGrid Edge Idx
 62
256
370
-1
  6
ByLayer
 10
108.7696525621133929
 20
62.7238329774853867
 30
0.0
 40
3.0
 41
100.0
 71
1
 72
2
  1
e[48]
  7
normal
 50
0.0
 73
0
 44
1.0
  0
MTEXT
  5
41E
100
AcDbEntity
100
AcDbMText
  8
1-UGrid New Triangle IDs
 62
256
370
-1
  6
ByLayer
 10
114.1356220885131449
 20
-20.8196551041033544
 30
0.0
 40
3.0
 41
100.0
 71
5
 72
2
  1
D12
  7
greeks
 50
0.0
 73
0
 44
1.0
  0
MTEXT
  5
41F
100
AcDbEntity
100
AcDbMText
  8
1-UGrid New Triangle IDs
 62
256
370
-1
  6
ByLayer
 10
138.6087939149886097
 20
-50.7313095586845932
 30
0.0
 40
3.0
 41
100.0
 71
5
 72
2
  1
D13
  7
greeks
 50
0.0
 73
0
 44
1.0
  0
MTEXT
  5
420
100
AcDbEntity
100
AcDbMText
  8
1-UGrid New Triangle IDs
 62
256
370
-1
  6
ByLayer
 10
158.0966899990340835
 20
-20.8196551041033544
 30
0.0
 40
3.0
 41
100.0
 71
5
 72
2
  1
D14
  7
greeks
 50
0.0
 73
0
 44
1.0
  0
MTEXT
  5
421
100
AcDbEntity
100
AcDbMText
  8
1-UGrid New Triangle IDs
 62
256
370
-1
  6
ByLayer
 10
136.3427594866113282
 20
-28.52417216058641
 30
0.0
 40
3.0
 41
100.0
 71
5
 72
2
  1
D15
  7
greeks
 50
0.0
 73
0
 44
1.0
  0
MTEXT
  5
422
100
AcDbEntity
100
AcDbMText
  8
1-UGrid New Triangle IDs
 62
256
370
-1
  6
ByLayer
 10
162.1755519701133039
 20
68.0088944882894282
 30
0.0
 40
3.0
 41
100.0
 71
5
 72
2
  1
D16
  7
greeks
 50
0.0
 73
0
 44
1.0
  0
MTEXT
  5
423
100
AcDbEntity
100
AcDbMText
  8
1-UGrid New Triangle IDs
 62
256
370
-1
  6
ByLayer
 10
181.2102411684832077
 20
19.5157577210137774
 30
0.0
 40
3.0
 41
100.0
 71
5
 72
2
  1
D17
  7
greeks
 50
0.0
 73
0
 44
1.0
  0
MTEXT
  5
424
100
AcDbEntity
100
AcDbMText
  8
1-UGrid New Triangle IDs
 62
256
370
-1
  6
ByLayer
 10
202.0577579095549936
 20
54.4126879180252203
 30
0.0
 40
3.0
 41
100.0
 71
5
 72
2
  1
D18
  7
greeks
 50
0.0
 73
0
 44
1.0
  0
MTEXT
  5
425
100
AcDbEntity
100
AcDbMText
  8
1-UGrid New Triangle IDs
 62
256
370
-1
  6
ByLayer
 10
179.3974136257813257
 20
48.9742052899195457
 30
0.0
 40
3.0
 41
100.0
 71
5
 72
2
  1
D29
  7
greeks
 50
0.0
 73
0
 44
1.0
  0
MTEXT
  5
426
100
AcDbEntity
100
AcDbMText
  8
1-UGrid New Triangle IDs
 62
256
370
-1
  6
ByLayer
 10
113.6824152028377455
 20
8.1855855791269434
 30
0.0
 40
3.0
 41
100.0
 71
5
 72
2
  1
D20
  7
greeks
 50
0.0
 73
0
 44
1.0
  0
MTEXT
  5
427
100
AcDbEntity
100
AcDbMText
  8
1-UGrid New Triangle IDs
 62
256
370
-1
  6
ByLayer
 10
138.1555870293133239
 20
55.7723085750516745
 30
0.0
 40
3.0
 41
100.0
 71
5
 72
2
  1
D21
  7
greeks
 50
0.0
 73
0
 44
1.0
  0
MTEXT
  5
428
100
AcDbEntity
100
AcDbMText
  8
1-UGrid New Triangle IDs
 62
256
370
-1
  6
ByLayer
 10
158.0966899990341403
 20
7.2791718077760024
 30
0.0
 40
3.0
 41
100.0
 71
5
 72
2
  1
D22
  7
greeks
 50
0.0
 73
0
 44
1.0
  0
MTEXT
  5
429
100
AcDbEntity
100
AcDbMText
  8
1-UGrid New Triangle IDs
 62
256
370
-1
  6
ByLayer
 10
136.3427594866114418
 20
24.047826577768511
 30
0.0
 40
3.0
 41
100.0
 71
5
 72
2
  1
D23
  7
greeks
 50
0.0
 73
0
 44
1.0
  0
MTEXT
  5
42A
100
AcDbEntity
100
AcDbMText
  8
1-UGrid New Triangle IDs
 62
256
370
-1
  6
ByLayer
 10
70.2470672796984132
 20
68.1721391581167779
 30
0.0
 40
3.0
 41
100.0
 71
5
 72
2
  1
D24
  7
greeks
 50
0.0
 73
0
 44
1.0
  0
MTEXT
  5
42B
100
AcDbEntity
100
AcDbMText
  8
1-UGrid New Triangle IDs
 62
256
370
-1
  6
ByLayer
 10
91.0945840207701991
 20
22.8514505905694207
 30
0.0
 40
3.0
 41
100.0
 71
5
 72
2
  1
D25
  7
greeks
 50
0.0
 73
0
 44
1.0
  0
MTEXT
  5
42C
100
AcDbEntity
100
AcDbMText
  8
1-UGrid New Triangle IDs
 62
256
370
-1
  6
ByLayer
 10
115.5677558472457633
 20
71.7977942435205705
 30
0.0
 40
3.0
 41
100.0
 71
5
 72
2
  1
D26
  7
greeks
 50
0.0
 73
0
 44
1.0
  0
MTEXT
  5
42D
100
AcDbEntity
100
AcDbMText
  8
1-UGrid New Triangle IDs
 62
256
370
-1
  6
ByLayer
 10
94.2670322204983933
 20
56.0623609818849502
 30
0.0
 40
3.0
 41
100.0
 71
5
 72
2
  1
D27
  7
greeks
 50
0.0
 73
0
 44
1.0
  0
MTEXT
  5
42E
100
AcDbEntity
100
AcDbMText
  8
1-UGrid New Vertex Idx
 62
256
370
-1
  6
ByLayer
 10
164.8437500000022169
 20
-41.4062500000005613
 30
0.0
 40
3.0
 41
100.0
 71
1
 72
2
  1
11
  7
normal
 50
0.0
 73
0
 44
1.0
  0
MTEXT
  5
42F
100
AcDbEntity
100
AcDbMText
  8
1-UGrid New Vertex Idx
 62
256
370
-1
  6
ByLayer
 10
134.375000000001819
 20
-16.0156250000002167
 30
0.0
 40
3.0
 41
100.0
 71
1
 72
2
  1
12
  7
normal
 50
0.0
 73
0
 44
1.0
  0
MTEXT
  5
430
100
AcDbEntity
100
AcDbMText
  8
1-UGrid New Vertex Idx
 62
256
370
-1
  6
ByLayer
 10
109.7656250000014779
 20
-41.4062500000005613
 30
0.0
 40
3.0
 41
100.0
 71
1
 72
2
  1
13
  7
normal
 50
0.0
 73
0
 44
1.0
  0
MTEXT
  5
431
100
AcDbEntity
100
AcDbMText
  8
1-UGrid New Vertex Idx
 62
256
370
-1
  6
ByLayer
 10
204.2968750000027569
 20
24.609375000000334
 30
0.0
 40
3.0
 41
100.0
 71
1
 72
2
  1
14
  7
normal
 50
0.0
 73
0
 44
1.0
  0
MTEXT
  5
432
100
AcDbEntity
100
AcDbMText
  8
1-UGrid New Vertex Idx
 62
256
370
-1
  6
ByLayer
 10
181.2500000000024443
 20
82.0312500000011084
 30
0.0
 40
3.0
 41
100.0
 71
1
 72
2
  1
15
  7
normal
 50
0.0
 73
0
 44
1.0
  0
MTEXT
  5
433
100
AcDbEntity
100
AcDbMText
  8
1-UGrid New Vertex Idx
 62
256
370
-1
  6
ByLayer
 10
166.7968750000022453
 20
43.7500000000005898
 30
0.0
 40
3.0
 41
100.0
 71
1
 72
2
  1
16
  7
normal
 50
0.0
 73
0
 44
1.0
  0
MTEXT
  5
434
100
AcDbEntity
100
AcDbMText
  8
1-UGrid New Vertex Idx
 62
256
370
-1
  6
ByLayer
 10
105.8593750000014353
 20
37.1093750000005045
 30
0.0
 40
3.0
 41
100.0
 71
1
 72
2
  1
17
  7
normal
 50
0.0
 73
0
 44
1.0
  0
MTEXT
  5
435
100
AcDbEntity
100
AcDbMText
  8
1-UGrid New Vertex Idx
 62
256
370
-1
  6
ByLayer
 10
94.531250000001279
 20
76.1718750000010232
 30
0.0
 40
3.0
 41
100.0
 71
1
 72
2
  1
18
  7
normal
 50
0.0
 73
0
 44
1.0
  0
MTEXT
  5
436
100
AcDbEntity
100
AcDbMText
  8
1-UGrid New Vertex Idx
 62
256
370
-1
  6
ByLayer
 10
62.5000000000008455
 20
36.7187500000004974
 30
0.0
 40
3.0
 41
100.0
 71
1
 72
2
  1
19
  7
normal
 50
0.0
 73
0
 44
1.0
  0
MTEXT
  5
437
100
AcDbEntity
100
AcDbMText
  8
1-UGrid Triangle IDs
 62
256
370
-1
  6
ByLayer
 10
52.4994856366487497
 20
-27.617758389235437
 30
0.0
 40
3.0
 41
100.0
 71
5
 72
2
  1
D0
  7
greeks
 50
0.0
 73
0
 44
1.0
  0
MTEXT
  5
438
100
AcDbEntity
100
AcDbMText
  8
1-UGrid Triangle IDs
 62
256
370
-1
  6
ByLayer
 10
95.5541397758186974
 20
-47.1056544732807936
 30
0.0
 40
3.0
 41
100.0
 71
5
 72
2
  1
D1
  7
greeks
 50
0.0
 73
0
 44
1.0
  0
MTEXT
  5
439
100
AcDbEntity
100
AcDbMText
  8
1-UGrid Triangle IDs
 62
256
370
-1
  6
ByLayer
 10
185.2891031395623713
 20
-43.0267925022015305
 30
0.0
 40
3.0
 41
100.0
 71
5
 72
2
  1
D3
  7
greeks
 50
0.0
 73
0
 44
1.0
  0
MTEXT
  5
43A
100
AcDbEntity
100
AcDbMText
  8
1-UGrid Triangle IDs
 62
256
370
-1
  6
ByLayer
 10
209.7622749660378929
 20
-1.784965905733471
 30
0.0
 40
3.0
 41
100.0
 71
5
 72
2
  1
D4
  7
greeks
 50
0.0
 73
0
 44
1.0
  0
MTEXT
  5
43B
100
AcDbEntity
100
AcDbMText
  8
1-UGrid Triangle IDs
 62
256
370
-1
  6
ByLayer
 10
188.4615513392906792
 20
91.5756525434139803
 30
0.0
 40
3.0
 41
100.0
 71
5
 72
2
  1
D6
  7
greeks
 50
0.0
 73
0
 44
1.0
  0
MTEXT
  5
43C
100
AcDbEntity
100
AcDbMText
  8
1-UGrid Triangle IDs
 62
256
370
-1
  6
ByLayer
 10
155.8306555706566314
 20
119.2212725696178381
 30
0.0
 40
3.0
 41
100.0
 71
5
 72
2
  1
D7
  7
greeks
 50
0.0
 73
0
 44
1.0
  0
MTEXT
  5
43D
100
AcDbEntity
100
AcDbMText
  8
1-UGrid Triangle IDs
 62
256
370
-1
  6
ByLayer
 10
110.056760117433825
 20
107.4378935420555763
 30
0.0
 40
3.0
 41
100.0
 71
5
 72
2
  1
D8
  7
greeks
 50
0.0
 73
0
 44
1.0
  0
MTEXT
  5
43E
100
AcDbEntity
100
AcDbMText
  8
1-UGrid Triangle IDs
 62
256
370
-1
  6
ByLayer
 10
46.6077961228675974
 20
23.1414128064175415
 30
0.0
 40
3.0
 41
100.0
 71
5
 72
2
  1
D10
  7
greeks
 50
0.0
 73
0
 44
1.0
  0
MTEXT
  5
43F
100
AcDbEntity
100
AcDbMText
  8
1-UGrid Triangle IDs
 62
256
370
-1
  6
ByLayer
 10
114.1356220885131449
 20
-20.8196551041033544
 30
0.0
 40
3.0
 41
100.0
 71
5
 72
2
  1
D12
  7
greeks
 50
0.0
 73
0
 44
1.0
  0
MTEXT
  5
440
100
AcDbEntity
100
AcDbMText
  8
1-UGrid Triangle IDs
 62
256
370
-1
  6
ByLayer
 10
138.6087939149886097
 20
-50.7313095586845932
 30
0.0
 40
3.0
 41
100.0
 71
5
 72
2
  1
D13
  7
greeks
 50
0.0
 73
0
 44
1.0
  0
MTEXT
  5
441
100
AcDbEntity
100
AcDbMText
  8
1-UGrid Triangle IDs
 62
256
370
-1
  6
ByLayer
 10
158.0966899990340835
 20
-20.8196551041033544
 30
0.0
 40
3.0
 41
100.0
 71
5
 72
2
  1
D14
  7
greeks
 50
0.0
 73
0
 44
1.0
  0
MTEXT
  5
442
100
AcDbEntity
100
AcDbMText
  8
1-UGrid Triangle IDs
 62
256
370
-1
  6
ByLayer
 10
136.3427594866113282
 20
-28.52417216058641
 30
0.0
 40
3.0
 41
100.0
 71
5
 72
2
  1
D15
  7
greeks
 50
0.0
 73
0
 44
1.0
  0
MTEXT
  5
443
100
AcDbEntity
100
AcDbMText
  8
1-UGrid Triangle IDs
 62
256
370
-1
  6
ByLayer
 10
162.1755519701133039
 20
68.0088944882894282
 30
0.0
 40
3.0
 41
100.0
 71
5
 72
2
  1
D16
  7
greeks
 50
0.0
 73
0
 44
1.0
  0
MTEXT
  5
444
100
AcDbEntity
100
AcDbMText
  8
1-UGrid Triangle IDs
 62
256
370
-1
  6
ByLayer
 10
181.2102411684832077
 20
19.5157577210137774
 30
0.0
 40
3.0
 41
100.0
 71
5
 72
2
  1
D17
  7
greeks
 50
0.0
 73
0
 44
1.0
  0
MTEXT
  5
445
100
AcDbEntity
100
AcDbMText
  8
1-UGrid Triangle IDs
 62
256
370
-1
  6
ByLayer
 10
202.0577579095549936
 20
54.4126879180252203
 30
0.0
 40
3.0
 41
100.0
 71
5
 72
2
  1
D18
  7
greeks
 50
0.0
 73
0
 44
1.0
  0
MTEXT
  5
446
100
AcDbEntity
100
AcDbMText
  8
1-UGrid Triangle IDs
 62
256
370
-1
  6
ByLayer
 10
179.3974136257813257
 20
48.9742052899195457
 30
0.0
 40
3.0
 41
100.0
 71
5
 72
2
  1
D19
  7
greeks
 50
0.0
 73
0
 44
1.0
  0
MTEXT
  5
447
100
AcDbEntity
100
AcDbMText
  8
1-UGrid Triangle IDs
 62
256
370
-1
  6
ByLayer
 10
113.6824152028377455
 20
8.1855855791269434
 30
0.0
 40
3.0
 41
100.0
 71
5
 72
2
  1
D20
  7
greeks
 50
0.0
 73
0
 44
1.0
  0
MTEXT
  5
448
100
AcDbEntity
100
AcDbMText
  8
1-UGrid Triangle IDs
 62
256
370
-1
  6
ByLayer
 10
138.1555870293133239
 20
55.7723085750516745
 30
0.0
 40
3.0
 41
100.0
 71
5
 72
2
  1
D21
  7
greeks
 50
0.0
 73
0
 44
1.0
  0
MTEXT
  5
449
100
AcDbEntity
100
AcDbMText
  8
1-UGrid Triangle IDs
 62
256
370
-1
  6
ByLayer
 10
158.0966899990341403
 20
7.2791718077760024
 30
0.0
 40
3.0
 41
100.0
 71
5
 72
2
  1
D22
  7
greeks
 50
0.0
 73
0
 44
1.0
  0
MTEXT
  5
44A
100
AcDbEntity
100
AcDbMText
  8
1-UGrid Triangle IDs
 62
256
370
-1
  6
ByLayer
 10
136.3427594866114418
 20
24.047826577768511
 30
0.0
 40
3.0
 41
100.0
 71
5
 72
2
  1
D23
  7
greeks
 50
0.0
 73
0
 44
1.0
  0
MTEXT
  5
44B
100
AcDbEntity
100
AcDbMText
  8
1-UGrid Triangle IDs
 62
256
370
-1
  6
ByLayer
 10
70.2470672796984132
 20
68.1721391581167779
 30
0.0
 40
3.0
 41
100.0
 71
5
 72
2
  1
D24
  7
greeks
 50
0.0
 73
0
 44
1.0
  0
MTEXT
  5
44C
100
AcDbEntity
100
AcDbMText
  8
1-UGrid Triangle IDs
 62
256
370
-1
  6
ByLayer
 10
91.0945840207701991
 20
22.8514505905694207
 30
0.0
 40
3.0
 41
100.0
 71
5
 72
2
  1
D25
  7
greeks
 50
0.0
 73
0
 44
1.0
  0
MTEXT
  5
44D
100
AcDbEntity
100
AcDbMText
  8
1-UGrid Triangle IDs
 62
256
370
-1
  6
ByLayer
 10
115.5677558472457633
 20
71.7977942435205705
 30
0.0
 40
3.0
 41
100.0
 71
5
 72
2
  1
D26
  7
greeks
 50
0.0
 73
0
 44
1.0
  0
MTEXT
  5
44E
100
AcDbEntity
100
AcDbMText
  8
1-UGrid Triangle IDs
 62
256
370
-1
  6
ByLayer
 10
94.2670322204983933
 20
56.0623609818849502
 30
0.0
 40
3.0
 41
100.0
 71
5
 72
2
  1
D27
  7
greeks
 50
0.0
 73
0
 44
1.0
  0
MTEXT
  5
44F
100
AcDbEntity
100
AcDbMText
  8
1-UGrid Triangle Idx
 62
256
370
-1
  6
ByLayer
 10
52.755019316493339
 20
-26.5040026106983753
 30
0.0
 40
3.0
 41
100.0
 71
5
 72
2
  1
D[0,0]
  7
greeks
 50
0.0
 73
0
 44
1.0
  0
MTEXT
  5
450
100
AcDbEntity
100
AcDbMText
  8
1-UGrid Triangle Idx
 62
256
370
-1
  6
ByLayer
 10
188.0
 20
90.4090909999999894
 30
0.0
 40
3.0
 41
100.0
 71
5
 72
2
  1
D[6,1]
  7
greeks
 50
0.0
 73
0
 44
1.0
  0
MTEXT
  5
451
100
AcDbEntity
100
AcDbMText
  8
1-UGrid Triangle Idx
 62
256
370
-1
  6
ByLayer
 10
154.9479940564648643
 20
117.7642173001495252
 30
0.0
 40
3.0
 41
100.0
 71
5
 72
2
  1
D[7,2]
  7
greeks
 50
0.0
 73
0
 44
1.0
  0
MTEXT
  5
452
100
AcDbEntity
100
AcDbMText
  8
1-UGrid Triangle Idx
 62
256
370
-1
  6
ByLayer
 10
109.292600297177728
 20
106.186921609213357
 30
0.0
 40
3.0
 41
100.0
 71
5
 72
2
  1
D[8,3]
  7
greeks
 50
0.0
 73
0
 44
1.0
  0
MTEXT
  5
453
100
AcDbEntity
100
AcDbMText
  8
1-UGrid Triangle Idx
 62
256
370
-1
  6
ByLayer
 10
47.0728083209512889
 20
22.1671890683508188
 30
0.0
 40
3.0
 41
100.0
 71
5
 72
2
  1
D[10,4]
  7
greeks
 50
0.0
 73
0
 44
1.0
  0
MTEXT
  5
454
100
AcDbEntity
100
AcDbMText
  8
1-UGrid Triangle Idx
 62
256
370
-1
  6
ByLayer
 10
70.0
 20
68.4090909999999894
 30
0.0
 40
3.0
 41
100.0
 71
5
 72
2
  1
D[12,5]
  7
greeks
 50
0.0
 73
0
 44
1.0
  0
MTEXT
  5
455
100
AcDbEntity
100
AcDbMText
  8
1-UGrid Triangle Idx
 62
256
370
-1
  6
ByLayer
 10
90.5471619613676211
 20
23.0040389940566072
 30
0.0
 40
3.0
 41
100.0
 71
5
 72
2
  1
D[13,6]
  7
greeks
 50
0.0
 73
0
 44
1.0
  0
MTEXT
  5
456
100
AcDbEntity
100
AcDbMText
  8
1-UGrid Triangle Idx
 62
256
370
-1
  6
ByLayer
 10
115.2844457652311689
 20
73.7840924858846421
 30
0.0
 40
3.0
 41
100.0
 71
5
 72
2
  1
D[14,7]
  7
greeks
 50
0.0
 73
0
 44
1.0
  0
MTEXT
  5
457
100
AcDbEntity
100
AcDbMText
  8
1-UGrid Triangle Idx
 62
256
370
-1
  6
ByLayer
 10
93.4593997028238874
 20
54.1013822332842054
 30
0.0
 40
3.0
 41
100.0
 71
5
 72
2
  1
D[15,8]
  7
greeks
 50
0.0
 73
0
 44
1.0
  0
MTEXT
  5
458
100
AcDbEntity
100
AcDbMText
  8
1-UGrid Triangle Idx
 62
256
370
-1
  6
ByLayer
 10
95.4531946508173093
 20
-47.971295329866301
 30
0.0
 40
3.0
 41
100.0
 71
5
 72
2
  1
D[1,9]
  7
greeks
 50
0.0
 73
0
 44
1.0
  0
MTEXT
  5
459
100
AcDbEntity
100
AcDbMText
  8
1-UGrid Triangle Idx
 62
256
370
-1
  6
ByLayer
 10
186.3298662704316371
 20
-45.356139312035836
 30
0.0
 40
3.0
 41
100.0
 71
5
 72
2
  1
D[3,10]
  7
greeks
 50
0.0
 73
0
 44
1.0
  0
MTEXT
  5
45A
100
AcDbEntity
100
AcDbMText
  8
1-UGrid Triangle Idx
 62
256
370
-1
  6
ByLayer
 10
209.6811173848448959
 20
-3.8755806196136904
 30
0.0
 40
3.0
 41
100.0
 71
5
 72
2
  1
D[4,11]
  7
greeks
 50
0.0
 73
0
 44
1.0
  0
MTEXT
  5
45B
100
AcDbEntity
100
AcDbMText
  8
1-UGrid Triangle Idx
 62
256
370
-1
  6
ByLayer
 10
113.2224475482913562
 20
-19.0861648692422179
 30
0.0
 40
3.0
 41
100.0
 71
5
 72
2
  1
D[16,12]
  7
greeks
 50
0.0
 73
0
 44
1.0
  0
MTEXT
  5
45C
100
AcDbEntity
100
AcDbMText
  8
1-UGrid Triangle Idx
 62
256
370
-1
  6
ByLayer
 10
138.0
 20
-48.5909089999999964
 30
0.0
 40
3.0
 41
100.0
 71
5
 72
2
  1
D[17,13]
  7
greeks
 50
0.0
 73
0
 44
1.0
  0
MTEXT
  5
45D
100
AcDbEntity
100
AcDbMText
  8
1-UGrid Triangle Idx
 62
256
370
-1
  6
ByLayer
 10
158.3186163447253989
 20
-19.7288656121842862
 30
0.0
 40
3.0
 41
100.0
 71
5
 72
2
  1
D[18,14]
  7
greeks
 50
0.0
 73
0
 44
1.0
  0
MTEXT
  5
45E
100
AcDbEntity
100
AcDbMText
  8
1-UGrid Triangle Idx
 62
256
370
-1
  6
ByLayer
 10
136.6810246656762331
 20
-30.2263110802377781
 30
0.0
 40
3.0
 41
100.0
 71
5
 72
2
  1
D[19,15]
  7
greeks
 50
0.0
 73
0
 44
1.0
  0
MTEXT
  5
45F
100
AcDbEntity
100
AcDbMText
  8
1-UGrid Triangle Idx
 62
256
370
-1
  6
ByLayer
 10
160.8090817236268322
 20
67.624877032689966
 30
0.0
 40
3.0
 41
100.0
 71
5
 72
2
  1
D[20,16]
  7
greeks
 50
0.0
 73
0
 44
1.0
  0
MTEXT
  5
460
100
AcDbEntity
100
AcDbMText
  8
1-UGrid Triangle Idx
 62
256
370
-1
  6
ByLayer
 10
182.2056606240723227
 20
18.1904782213968303
 30
0.0
 40
3.0
 41
100.0
 71
5
 72
2
  1
D[21,17]
  7
greeks
 50
0.0
 73
0
 44
1.0
  0
MTEXT
  5
461
100
AcDbEntity
100
AcDbMText
  8
1-UGrid Triangle Idx
 62
256
370
-1
  6
ByLayer
 10
202.0490460624087348
 20
55.0386541500747342
 30
0.0
 40
3.0
 41
100.0
 71
5
 72
2
  1
D[22,18]
  7
greeks
 50
0.0
 73
0
 44
1.0
  0
MTEXT
  5
462
100
AcDbEntity
100
AcDbMText
  8
1-UGrid Triangle Idx
 62
256
370
-1
  6
ByLayer
 10
177.8138722139687218
 20
45.6659349821697518
 30
0.0
 40
3.0
 41
100.0
 71
5
 72
2
  1
D[23,19]
  7
greeks
 50
0.0
 73
0
 44
1.0
  0
MTEXT
  5
463
100
AcDbEntity
100
AcDbMText
  8
1-UGrid Triangle Idx
 62
256
370
-1
  6
ByLayer
 10
113.2362555720659714
 20
4.5933406285289973
 30
0.0
 40
3.0
 41
100.0
 71
5
 72
2
  1
D[24,20]
  7
greeks
 50
0.0
 73
0
 44
1.0
  0
MTEXT
  5
464
100
AcDbEntity
100
AcDbMText
  8
1-UGrid Triangle Idx
 62
256
370
-1
  6
ByLayer
 10
137.645075780090167
 20
55.306446126300564
 30
0.0
 40
3.0
 41
100.0
 71
5
 72
2
  1
D[25,21]
  7
greeks
 50
0.0
 73
0
 44
1.0
  0
MTEXT
  5
465
100
AcDbEntity
100
AcDbMText
  8
1-UGrid Triangle Idx
 62
256
370
-1
  6
ByLayer
 10
158.2169390787526879
 20
4.3318250267459346
 30
0.0
 40
3.0
 41
100.0
 71
5
 72
2
  1
D[26,22]
  7
greeks
 50
0.0
 73
0
 44
1.0
  0
MTEXT
  5
466
100
AcDbEntity
100
AcDbMText
  8
1-UGrid Triangle Idx
 62
256
370
-1
  6
ByLayer
 10
136.0717979197631564
 20
23.8408889197624134
 30
0.0
 40
3.0
 41
100.0
 71
5
 72
2
  1
D[27,23]
  7
greeks
 50
0.0
 73
0
 44
1.0
  0
MTEXT
  5
467
100
AcDbEntity
100
AcDbMText
  8
2-Vertices
 62
256
370
-1
  6
ByLayer
 10
130.0781250000017621
 20
63.2812500000008527
 30
0.0
 40
3.0
 41
100.0
 71
1
 72
2
  1
20
  7
normal
 50
0.0
 73
0
 44
1.0
  0
MTEXT
  5
468
100
AcDbEntity
100
AcDbMText
  8
2-Vertices
 62
256
370
-1
  6
ByLayer
 10
115.2343750000015632
 20
94.531250000001279
 30
0.0
 40
3.0
 41
100.0
 71
1
 72
2
  1
21
  7
normal
 50
0.0
 73
0
 44
1.0
  0
MTEXT
  5
469
100
AcDbEntity
100
AcDbMText
  8
2-Vertices
 62
256
370
-1
  6
ByLayer
 10
98.0468750000013216
 20
60.9375000000008242
 30
0.0
 40
3.0
 41
100.0
 71
1
 72
2
  1
22
  7
normal
 50
0.0
 73
0
 44
1.0
  0
MTEXT
  5
46A
100
AcDbEntity
100
AcDbMText
  8
2-Vertices
 62
256
370
-1
  6
ByLayer
 10
122.2656250000016485
 20
9.3750000000001261
 30
0.0
 40
3.0
 41
100.0
 71
1
 72
2
  1
23
  7
normal
 50
0.0
 73
0
 44
1.0
  0
MTEXT
  5
46B
100
AcDbEntity
100
AcDbMText
  8
2-Vertices
 62
256
370
-1
  6
ByLayer
 10
109.7656250000014779
 20
-14.0625000000001901
 30
0.0
 40
3.0
 41
100.0
 71
1
 72
2
  1
24
  7
normal
 50
0.0
 73
0
 44
1.0
  0
MTEXT
  5
46C
100
AcDbEntity
100
AcDbMText
  8
2-Vertices
 62
256
370
-1
  6
ByLayer
 10
95.3125000000012932
 20
18.7500000000002522
 30
0.0
 40
3.0
 41
100.0
 71
1
 72
2
  1
25
  7
normal
 50
0.0
 73
0
 44
1.0
  0
MTEXT
  5
46D
100
AcDbEntity
100
AcDbMText
  8
2-Vertices
 62
256
370
-1
  6
ByLayer
 10
153.1250000000020748
 20
66.4062500000008953
 30
0.0
 40
3.0
 41
100.0
 71
1
 72
2
  1
26
  7
normal
 50
0.0
 73
0
 44
1.0
  0
MTEXT
  5
46E
100
AcDbEntity
100
AcDbMText
  8
2-Vertices
 62
256
370
-1
  6
ByLayer
 10
139.4531250000018758
 20
38.6718750000005258
 30
0.0
 40
3.0
 41
100.0
 71
1
 72
2
  1
27
  7
normal
 50
0.0
 73
0
 44
1.0
  0
MTEXT
  5
46F
100
AcDbEntity
100
AcDbMText
  8
2-Vertices
 62
256
370
-1
  6
ByLayer
 10
150.0000000000020179
 20
13.6718750000001847
 30
0.0
 40
3.0
 41
100.0
 71
1
 72
2
  1
30
  7
normal
 50
0.0
 73
0
 44
1.0
  0
MTEXT
  5
470
100
AcDbEntity
100
AcDbMText
  8
2-Vertices
 62
256
370
-1
  6
ByLayer
 10
156.7213114754110563
 20
-12.4590163934427203
 30
0.0
 40
3.0
 41
100.0
 71
1
 72
2
  1
29
  7
normal
 50
0.0
 73
0
 44
1.0
  0
MTEXT
  5
471
100
AcDbEntity
100
AcDbMText
  8
2-Vertices
 62
256
370
-1
  6
ByLayer
 10
173.114754098361999
 20
16.0655737704919268
 30
0.0
 40
3.0
 41
100.0
 71
1
 72
2
  1
28
  7
normal
 50
0.0
 73
0
 44
1.0
  0
LINE
  5
472
100
AcDbEntity
100
AcDbLine
  8
2
 62
256
370
-1
  6
ByLayer
 10
140.0
 20
90.0
 30
0.0
 11
117.5
 21
87.5
 31
0.0
  0
LINE
  5
473
100
AcDbEntity
100
AcDbLine
  8
2
 62
256
370
-1
  6
ByLayer
 10
117.5
 20
87.5
 30
0.0
 11
95.0
 21
85.0
 31
0.0
  0
LINE
  5
474
100
AcDbEntity
100
AcDbLine
  8
2
 62
256
370
-1
  6
ByLayer
 10
127.5000445955795527
 20
65.0000891911591054
 30
0.0
 11
117.5
 21
87.5
 31
0.0
  0
LINE
  5
475
100
AcDbEntity
100
AcDbLine
  8
2
 62
256
370
-1
  6
ByLayer
 10
115.0000891911591054
 20
40.0001783823182038
 30
0.0
 11
105.0000445955795527
 21
62.5000891911591054
 31
0.0
  0
LINE
  5
476
100
AcDbEntity
100
AcDbLine
  8
2
 62
256
370
-1
  6
ByLayer
 10
105.0000445955795527
 20
62.5000891911591054
 30
0.0
 11
95.0
 21
85.0
 31
0.0
  0
LINE
  5
477
100
AcDbEntity
100
AcDbLine
  8
2
 62
256
370
-1
  6
ByLayer
 10
127.5000445955795527
 20
65.0000891911591054
 30
0.0
 11
105.0000445955795527
 21
62.5000891911591054
 31
0.0
  0
LINE
  5
478
100
AcDbEntity
100
AcDbLine
  8
2
 62
256
370
-1
  6
ByLayer
 10
105.0000445955795527
 20
62.5000891911591054
 30
0.0
 11
117.5
 21
87.5
 31
0.0
  0
MTEXT
  5
479
100
AcDbEntity
100
AcDbMText
  8
2-UGrid Triangle Idx
 62
256
370
-1
  6
ByLayer
 10
52.755019316493339
 20
-26.5040026106983753
 30
0.0
 40
3.0
 41
100.0
 71
5
 72
2
  1
D[0,0]
  7
greeks
 50
0.0
 73
0
 44
1.0
  0
MTEXT
  5
47A
100
AcDbEntity
100
AcDbMText
  8
2-UGrid Triangle Idx
 62
256
370
-1
  6
ByLayer
 10
160.8090817236268322
 20
67.624877032689966
 30
0.0
 40
3.0
 41
100.0
 71
5
 72
2
  1
D[20,16]
  7
greeks
 50
0.0
 73
0
 44
1.0
  0
MTEXT
  5
47B
100
AcDbEntity
100
AcDbMText
  8
2-UGrid Triangle Idx
 62
256
370
-1
  6
ByLayer
 10
182.2056606240723227
 20
18.1904782213968303
 30
0.0
 40
3.0
 41
100.0
 71
5
 72
2
  1
D[21,17]
  7
greeks
 50
0.0
 73
0
 44
1.0
  0
MTEXT
  5
47C
100
AcDbEntity
100
AcDbMText
  8
2-UGrid Triangle Idx
 62
256
370
-1
  6
ByLayer
 10
202.0490460624087348
 20
55.0386541500747342
 30
0.0
 40
3.0
 41
100.0
 71
5
 72
2
  1
D[22,18]
  7
greeks
 50
0.0
 73
0
 44
1.0
  0
MTEXT
  5
47D
100
AcDbEntity
100
AcDbMText
  8
2-UGrid Triangle Idx
 62
256
370
-1
  6
ByLayer
 10
177.8138722139687218
 20
45.6659349821697518
 30
0.0
 40
3.0
 41
100.0
 71
5
 72
2
  1
D[23,19]
  7
greeks
 50
0.0
 73
0
 44
1.0
  0
MTEXT
  5
47E
100
AcDbEntity
100
AcDbMText
  8
2-UGrid Triangle Idx
 62
256
370
-1
  6
ByLayer
 10
137.645075780090167
 20
55.306446126300564
 30
0.0
 40
3.0
 41
100.0
 71
5
 72
2
  1
D[25,21]
  7
greeks
 50
0.0
 73
0
 44
1.0
  0
MTEXT
  5
47F
100
AcDbEntity
100
AcDbMText
  8
2-UGrid Triangle Idx
 62
256
370
-1
  6
ByLayer
 10
158.2169390787526879
 20
4.3318250267459346
 30
0.0
 40
3.0
 41
100.0
 71
5
 72
2
  1
D[26,22]
  7
greeks
 50
0.0
 73
0
 44
1.0
  0
MTEXT
  5
480
100
AcDbEntity
100
AcDbMText
  8
2-UGrid Triangle Idx
 62
256
370
-1
  6
ByLayer
 10
136.0717979197631564
 20
23.8408889197624134
 30
0.0
 40
3.0
 41
100.0
 71
5
 72
2
  1
D[27,23]
  7
greeks
 50
0.0
 73
0
 44
1.0
  0
MTEXT
  5
481
100
AcDbEntity
100
AcDbMText
  8
2-UGrid Triangle Idx
 62
256
370
-1
  6
ByLayer
 10
95.4531946508173093
 20
-47.971295329866301
 30
0.0
 40
3.0
 41
100.0
 71
5
 72
2
  1
D[1,1]
  7
greeks
 50
0.0
 73
0
 44
1.0
  0
MTEXT
  5
482
100
AcDbEntity
100
AcDbMText
  8
2-UGrid Triangle Idx
 62
256
370
-1
  6
ByLayer
 10
109.292600297177728
 20
106.186921609213357
 30
0.0
 40
3.0
 41
100.0
 71
5
 72
2
  1
D[8,2]
  7
greeks
 50
0.0
 73
0
 44
1.0
  0
MTEXT
  5
483
100
AcDbEntity
100
AcDbMText
  8
2-UGrid Triangle Idx
 62
256
370
-1
  6
ByLayer
 10
47.0728083209512889
 20
22.1671890683508188
 30
0.0
 40
3.0
 41
100.0
 71
5
 72
2
  1
D[10,3]
  7
greeks
 50
0.0
 73
0
 44
1.0
  0
MTEXT
  5
484
100
AcDbEntity
100
AcDbMText
  8
2-UGrid Triangle Idx
 62
256
370
-1
  6
ByLayer
 10
70.0
 20
68.4090909999999894
 30
0.0
 40
3.0
 41
100.0
 71
5
 72
2
  1
D[12,4]
  7
greeks
 50
0.0
 73
0
 44
1.0
  0
MTEXT
  5
485
100
AcDbEntity
100
AcDbMText
  8
2-UGrid Triangle Idx
 62
256
370
-1
  6
ByLayer
 10
90.5471619613676211
 20
23.0040389940566072
 30
0.0
 40
3.0
 41
100.0
 71
5
 72
2
  1
D[13,5]
  7
greeks
 50
0.0
 73
0
 44
1.0
  0
MTEXT
  5
486
100
AcDbEntity
100
AcDbMText
  8
2-UGrid Triangle Idx
 62
256
370
-1
  6
ByLayer
 10
93.4593997028238874
 20
54.1013822332842054
 30
0.0
 40
3.0
 41
100.0
 71
5
 72
2
  1
D[15,6]
  7
greeks
 50
0.0
 73
0
 44
1.0
  0
MTEXT
  5
487
100
AcDbEntity
100
AcDbMText
  8
2-UGrid Triangle Idx
 62
256
370
-1
  6
ByLayer
 10
113.2224475482913562
 20
-19.0861648692422179
 30
0.0
 40
3.0
 41
100.0
 71
5
 72
2
  1
D[16,7]
  7
greeks
 50
0.0
 73
0
 44
1.0
  0
MTEXT
  5
488
100
AcDbEntity
100
AcDbMText
  8
2-UGrid Triangle Idx
 62
256
370
-1
  6
ByLayer
 10
138.0
 20
-48.5909089999999964
 30
0.0
 40
3.0
 41
100.0
 71
5
 72
2
  1
D[17,8]
  7
greeks
 50
0.0
 73
0
 44
1.0
  0
MTEXT
  5
489
100
AcDbEntity
100
AcDbMText
  8
2-UGrid Triangle Idx
 62
256
370
-1
  6
ByLayer
 10
136.6810246656762331
 20
-30.2263110802377781
 30
0.0
 40
3.0
 41
100.0
 71
5
 72
2
  1
D[19,9]
  7
greeks
 50
0.0
 73
0
 44
1.0
  0
MTEXT
  5
48A
100
AcDbEntity
100
AcDbMText
  8
2-UGrid Triangle Idx
 62
256
370
-1
  6
ByLayer
 10
106.5573770491830032
 20
82.3763041147561523
 30
0.0
 40
3.0
 41
100.0
 71
5
 72
2
  1
D[28,10]
  7
greeks
 50
0.0
 73
0
 44
1.0
  0
MTEXT
  5
48B
100
AcDbEntity
100
AcDbMText
  8
2-UGrid Triangle Idx
 62
256
370
-1
  6
ByLayer
 10
115.7786885245930648
 20
58.8107303442637601
 30
0.0
 40
3.0
 41
100.0
 71
5
 72
2
  1
D[29,11]
  7
greeks
 50
0.0
 73
0
 44
1.0
  0
MTEXT
  5
48C
100
AcDbEntity
100
AcDbMText
  8
2-UGrid Triangle Idx
 62
256
370
-1
  6
ByLayer
 10
128.0737704918064992
 20
84.9377795245922869
 30
0.0
 40
3.0
 41
100.0
 71
5
 72
2
  1
D[30,12]
  7
greeks
 50
0.0
 73
0
 44
1.0
  0
MTEXT
  5
48D
100
AcDbEntity
100
AcDbMText
  8
2-UGrid Triangle Idx
 62
256
370
-1
  6
ByLayer
 10
117.315573770494737
 20
69.056631983608284
 30
0.0
 40
3.0
 41
100.0
 71
5
 72
2
  1
D[31,13]
  7
greeks
 50
0.0
 73
0
 44
1.0
  0
MTEXT
  5
48E
100
AcDbEntity
100
AcDbMText
  8
2-UGrid Triangle Idx
 62
256
370
-1
  6
ByLayer
 10
100.409836065576286
 20
-5.226154901639485
 30
0.0
 40
3.0
 41
100.0
 71
5
 72
2
  1
D[32,14]
  7
greeks
 50
0.0
 73
0
 44
1.0
  0
MTEXT
  5
48F
100
AcDbEntity
100
AcDbMText
  8
2-UGrid Triangle Idx
 62
256
370
-1
  6
ByLayer
 10
114.4194098360685246
 20
19.6132877213119698
 30
0.0
 40
3.0
 41
100.0
 71
5
 72
2
  1
D[33,15]
  7
greeks
 50
0.0
 73
0
 44
1.0
  0
MTEXT
  5
490
100
AcDbEntity
100
AcDbMText
  8
2-UGrid Triangle Idx
 62
256
370
-1
  6
ByLayer
 10
123.6857704918064655
 20
-5.6341876885247455
 30
0.0
 40
3.0
 41
100.0
 71
5
 72
2
  1
D[34,16]
  7
greeks
 50
0.0
 73
0
 44
1.0
  0
MTEXT
  5
491
100
AcDbEntity
100
AcDbMText
  8
2-UGrid Triangle Idx
 62
256
370
-1
  6
ByLayer
 10
113.4793442622979995
 20
12.3613532950822744
 30
0.0
 40
3.0
 41
100.0
 71
5
 72
2
  1
D[35,17]
  7
greeks
 50
0.0
 73
0
 44
1.0
  0
MTEXT
  5
492
100
AcDbEntity
100
AcDbMText
  8
2-UGrid Triangle Idx
 62
256
370
-1
  6
ByLayer
 10
186.3298662704316371
 20
-45.356139312035836
 30
0.0
 40
3.0
 41
100.0
 71
5
 72
2
  1
D[3,18]
  7
greeks
 50
0.0
 73
0
 44
1.0
  0
MTEXT
  5
493
100
AcDbEntity
100
AcDbMText
  8
2-UGrid Triangle Idx
 62
256
370
-1
  6
ByLayer
 10
209.6811173848448959
 20
-3.8755806196136904
 30
0.0
 40
3.0
 41
100.0
 71
5
 72
2
  1
D[4,19]
  7
greeks
 50
0.0
 73
0
 44
1.0
  0
MTEXT
  5
494
100
AcDbEntity
100
AcDbMText
  8
2-UGrid Triangle Idx
 62
256
370
-1
  6
ByLayer
 10
188.0
 20
90.4090909999999894
 30
0.0
 40
3.0
 41
100.0
 71
5
 72
2
  1
D[6,20]
  7
greeks
 50
0.0
 73
0
 44
1.0
  0
MTEXT
  5
495
100
AcDbEntity
100
AcDbMText
  8
2-UGrid Triangle Idx
 62
256
370
-1
  6
ByLayer
 10
154.9479940564648643
 20
117.7642173001495252
 30
0.0
 40
3.0
 41
100.0
 71
5
 72
2
  1
D[7,21]
  7
greeks
 50
0.0
 73
0
 44
1.0
  0
MTEXT
  5
496
100
AcDbEntity
100
AcDbMText
  8
2-UGrid Triangle Idx
 62
256
370
-1
  6
ByLayer
 10
158.3186163447253989
 20
-19.7288656121842862
 30
0.0
 40
3.0
 41
100.0
 71
5
 72
2
  1
D[18,22]
  7
greeks
 50
0.0
 73
0
 44
1.0
  0
LINE
  5
497
100
AcDbEntity
100
AcDbLine
  8
0-UGrid Mark DownAdj Edges
 62
256
370
-1
  6
ByLayer
 10
140.0
 20
90.0
 30
0.0
 11
220.0
 21
60.0
 31
0.0
  0
LINE
  5
498
100
AcDbEntity
100
AcDbLine
  8
0-UGrid
 62
256
370
-1
  6
ByLayer
 10
50.0
 20
80.0
 30
0.0
 11
140.0
 21
90.0
 31
0.0
  0
LINE
  5
499
100
AcDbEntity
100
AcDbLine
  8
0-UGrid
 62
256
370
-1
  6
ByLayer
 10
130.0
 20
150.0
 30
0.0
 11
140.0
 21
90.0
 31
0.0
  0
LINE
  5
49A
100
AcDbEntity
100
AcDbLine
  8
0-UGrid
 62
256
370
-1
  6
ByLayer
 10
140.0
 20
90.0
 30
0.0
 11
200.0
 21
120.0
 31
0.0
  0
LINE
  5
49B
100
AcDbEntity
100
AcDbLine
  8
1-UGrid DG Part2 H5Fed OverlapEdges
 62
256
370
-1
  6
ByLayer
 10
95.2752319396871599
 20
85.0305813266319035
 30
0.0
 11
140.0
 21
90.0
 31
0.0
  0
LINE
  5
49C
100
AcDbEntity
100
AcDbLine
  8
1-UGrid DG Part2 H5Fed OverlapEdges
 62
256
370
-1
  6
ByLayer
 10
67.25
 20
-70.0
 30
0.0
 11
140.0
 21
-70.0
 31
0.0
  0
LINE
  5
49D
100
AcDbEntity
100
AcDbLine
  8
1-UGrid DG Part2 H5Fed OverlapEdges
 62
256
370
-1
  6
ByLayer
 10
130.0
 20
150.0
 30
0.0
 11
50.0
 21
80.0
 31
0.0
  0
LINE
  5
49E
100
AcDbEntity
100
AcDbLine
  8
1-UGrid DG Part2 H5Fed OverlapEdges
 62
256
370
-1
  6
ByLayer
 10
114.9999989626024757
 20
-39.9999987551229736
 30
0.0
 11
159.9997155749006197
 21
-40.0004266376490492
 31
0.0
  0
LINE
  5
49F
100
AcDbEntity
100
AcDbLine
  8
1-UGrid DG Part2 H5Fed BorderEdges
 62
256
370
-1
  6
ByLayer
 10
130.0
 20
150.0
 30
0.0
 11
140.0
 21
90.0
 31
0.0
  0
LINE
  5
4A0
100
AcDbEntity
100
AcDbLine
  8
1-UGrid DG Part2 H5Fed BorderEdges
 62
256
370
-1
  6
ByLayer
 10
140.0
 20
90.0
 30
0.0
 11
115.0000891911591054
 21
40.0001783823182038
 31
0.0
  0
LINE
  5
4A1
100
AcDbEntity
100
AcDbLine
  8
1-UGrid DG Part2 H5Fed BorderEdges
 62
256
370
-1
  6
ByLayer
 10
134.9999999999999716
 20
-10.0000000000000249
 30
0.0
 11
159.9997155749006197
 21
-40.0004266376490492
 31
0.0
  0
LINE
  5
4A2
100
AcDbEntity
100
AcDbLine
  8
1-UGrid DG Part2 H5Fed BorderEdges
 62
256
370
-1
  6
ByLayer
 10
159.9997155749006197
 20
-40.0004266376490492
 30
0.0
 11
140.0
 21
-70.0
 31
0.0
  0
LINE
  5
4A3
100
AcDbEntity
100
AcDbLine
  8
1-UGrid DG Part2 H5Fed BorderEdges
 62
256
370
-1
  6
ByLayer
 10
115.0000891911591054
 20
40.0001783823182038
 30
0.0
 11
134.9999999999999716
 21
-10.0000000000000249
 31
0.0
  0
LINE
  5
4A4
100
AcDbEntity
100
AcDbLine
  8
1-UGrid DG Part2 H5Fed GhostEdges
 62
256
370
-1
  6
ByLayer
 10
50.0
 20
80.0
 30
0.0
 11
70.0
 21
35.0
 31
0.0
  0
HATCH
  5
4A5
  8
1-UGrid DG Part2 H5Fed OverlapVertices
 62
256
370
-1
  6
ByLayer
100
AcDbEntity
100
AcDbHatch
 10
0.0
 20
0.0
 30
0.0
210
0.0
220
0.0
230
1.0
  2
SOLID
 70
1
 71
0
 91
1
 92
1
 93
1
 72
2
 10
114.9999989626024757
 20
-39.9999987551229665
 40
7.25
 50
0.0
 51
360.0
 73
1
 97
0
 75
0
 76
1
 98
0
  0
LINE
  5
4A6
100
AcDbEntity
100
AcDbLine
  8
1-UGrid DG Part2 H5Fed InteriorEdges
 62
256
370
-1
  6
ByLayer
 10
130.0
 20
150.0
 30
0.0
 11
200.0
 21
120.0
 31
0.0
  0
LINE
  5
4A7
100
AcDbEntity
100
AcDbLine
  8
1-UGrid DG Part2 H5Fed InteriorEdges
 62
256
370
-1
  6
ByLayer
 10
200.0
 20
120.0
 30
0.0
 11
220.0
 21
60.0
 31
0.0
  0
LINE
  5
4A8
100
AcDbEntity
100
AcDbLine
  8
1-UGrid DG Part2 H5Fed InteriorEdges
 62
256
370
-1
  6
ByLayer
 10
220.0
 20
60.0
 30
0.0
 11
240.0
 21
-60.0
 31
0.0
  0
LINE
  5
4A9
100
AcDbEntity
100
AcDbLine
  8
1-UGrid DG Part2 H5Fed InteriorEdges
 62
256
370
-1
  6
ByLayer
 10
240.0
 20
-60.0
 30
0.0
 11
140.0
 21
-70.0
 31
0.0
  0
LINE
  5
4AA
100
AcDbEntity
100
AcDbLine
  8
1-UGrid DG Part2 H5Fed InteriorEdges
 62
256
370
-1
  6
ByLayer
 10
240.0
 20
-60.0
 30
0.0
 11
180.0
 21
-10.0
 31
0.0
  0
LINE
  5
4AB
100
AcDbEntity
100
AcDbLine
  8
1-UGrid DG Part2 H5Fed InteriorEdges
 62
256
370
-1
  6
ByLayer
 10
180.0
 20
-10.0
 30
0.0
 11
159.9997155749006197
 21
-40.0004266376490278
 31
0.0
  0
LINE
  5
4AC
100
AcDbEntity
100
AcDbLine
  8
1-UGrid DG Part2 H5Fed InteriorEdges
 62
256
370
-1
  6
ByLayer
 10
135.0
 20
-10.0
 30
0.0
 11
180.0
 21
-10.0
 31
0.0
  0
LINE
  5
4AD
100
AcDbEntity
100
AcDbLine
  8
1-UGrid DG Part2 H5Fed InteriorEdges
 62
256
370
-1
  6
ByLayer
 10
180.0
 20
-10.0
 30
0.0
 11
200.0
 21
25.0
 31
0.0
  0
LINE
  5
4AE
100
AcDbEntity
100
AcDbLine
  8
1-UGrid DG Part2 H5Fed InteriorEdges
 62
256
370
-1
  6
ByLayer
 10
200.0
 20
25.0
 30
0.0
 11
220.0
 21
60.0
 31
0.0
  0
LINE
  5
4AF
100
AcDbEntity
100
AcDbLine
  8
1-UGrid DG Part2 H5Fed InteriorEdges
 62
256
370
-1
  6
ByLayer
 10
220.0
 20
60.0
 30
0.0
 11
140.0
 21
90.0
 31
0.0
  0
LINE
  5
4B0
100
AcDbEntity
100
AcDbLine
  8
1-UGrid DG Part2 H5Fed InteriorEdges
 62
256
370
-1
  6
ByLayer
 10
140.0
 20
90.0
 30
0.0
 11
159.9999450076830101
 21
40.0001374807924535
 31
0.0
  0
LINE
  5
4B1
100
AcDbEntity
100
AcDbLine
  8
1-UGrid DG Part2 H5Fed InteriorEdges
 62
256
370
-1
  6
ByLayer
 10
159.9999450076830101
 20
40.0001374807924535
 30
0.0
 11
180.0000175342504178
 21
74.9999934246560969
 31
0.0
  0
LINE
  5
4B2
100
AcDbEntity
100
AcDbLine
  8
1-UGrid DG Part2 H5Fed InteriorEdges
 62
256
370
-1
  6
ByLayer
 10
180.0000175342504178
 20
74.9999934246560969
 30
0.0
 11
200.0
 21
25.0
 31
0.0
  0
LINE
  5
4B3
100
AcDbEntity
100
AcDbLine
  8
1-UGrid DG Part2 H5Fed InteriorEdges
 62
256
370
-1
  6
ByLayer
 10
200.0
 20
25.0
 30
0.0
 11
159.9999450076830101
 21
40.0001374807924535
 31
0.0
  0
LINE
  5
4B4
100
AcDbEntity
100
AcDbLine
  8
1-UGrid DG Part2 H5Fed InteriorEdges
 62
256
370
-1
  6
ByLayer
 10
159.9999450076830101
 20
40.0001374807924535
 30
0.0
 11
115.0000891911591054
 21
40.0001783823182038
 31
0.0
  0
LINE
  5
4B5
100
AcDbEntity
100
AcDbLine
  8
1-UGrid DG Part2 H5Fed InteriorEdges
 62
256
370
-1
  6
ByLayer
 10
140.0
 20
90.0
 30
0.0
 11
200.0
 21
120.0
 31
0.0
  0
LINE
  5
4B6
100
AcDbEntity
100
AcDbLine
  8
1-UGrid DG Part2 H5Fed InteriorEdges
 62
256
370
-1
  6
ByLayer
 10
135.0
 20
-10.0
 30
0.0
 11
159.9999450076830101
 21
40.0001374807924535
 31
0.0
  0
LINE
  5
4B7
100
AcDbEntity
100
AcDbLine
  8
1-UGrid DG Part2 H5Fed InteriorEdges
 62
256
370
-1
  6
ByLayer
 10
159.9999450076830101
 20
40.0001374807924535
 30
0.0
 11
180.0
 21
-10.0
 31
0.0
  0
HATCH
  5
4B8
  8
1-UGrid DG Part2 H5Fed InteriorVertices
 62
256
370
-1
  6
ByLayer
100
AcDbEntity
100
AcDbHatch
 10
0.0
 20
0.0
 30
0.0
210
0.0
220
0.0
230
1.0
  2
SOLID
 70
1
 71
0
 91
1
 92
1
 93
7
 72
2
 10
200.0
 20
25.0
 40
7.25
 50
0.0
 51
360.0
 73
1
 72
2
 10
180.0
 20
-10.0
 40
7.25
 50
0.0
 51
360.0
 73
1
 72
2
 10
240.0
 20
-60.0
 40
7.25
 50
0.0
 51
360.0
 73
1
 72
2
 10
159.9999450076830385
 20
40.0001374807924819
 40
7.25
 50
0.0
 51
360.0
 73
1
 72
2
 10
200.0
 20
120.0
 40
7.25
 50
0.0
 51
360.0
 73
1
 72
2
 10
180.0000175342504178
 20
74.9999934246560969
 40
7.25
 50
0.0
 51
360.0
 73
1
 72
2
 10
220.0
 20
60.0
 40
7.25
 50
0.0
 51
360.0
 73
1
 97
0
 75
0
 76
1
 98
0
  0
HATCH
  5
4B9
  8
1-UGrid DG Part2 H5Fed FrontVertices
 62
256
370
-1
  6
ByLayer
100
AcDbEntity
100
AcDbHatch
 10
0.0
 20
0.0
 30
0.0
210
0.0
220
0.0
230
1.0
  2
SOLID
 70
1
 71
0
 91
1
 92
1
 93
5
 72
2
 10
70.0
 20
35.0
 40
7.25
 50
0.0
 51
360.0
 73
1
 72
2
 10
95.0
 20
85.0
 40
7.25
 50
0.0
 51
360.0
 73
1
 72
2
 10
90.0
 20
-10.0
 40
7.25
 50
0.0
 51
360.0
 73
1
 72
2
 10
50.0
 20
80.0
 40
7.25
 50
0.0
 51
360.0
 73
1
 72
2
 10
60.0
 20
-70.0
 40
7.25
 50
0.0
 51
360.0
 73
1
 97
0
 75
0
 76
1
 98
0
  0
HATCH
  5
4BA
  8
1-UGrid DG Part2 H5Fed BorderVertices
 62
256
370
-1
  6
ByLayer
100
AcDbEntity
100
AcDbHatch
 10
0.0
 20
0.0
 30
0.0
210
0.0
220
0.0
230
1.0
  2
SOLID
 70
1
 71
0
 91
1
 92
1
 93
1
 72
2
 10
130.0
 20
150.0
 40
7.25
 50
0.0
 51
360.0
 73
1
 97
0
 75
0
 76
1
 98
0
  0
HATCH
  5
4BB
  8
1-UGrid DG Part2 H5Fed BorderVertices
 62
256
370
-1
  6
ByLayer
100
AcDbEntity
100
AcDbHatch
 10
0.0
 20
0.0
 30
0.0
210
0.0
220
0.0
230
1.0
  2
SOLID
 70
1
 71
0
 91
1
 92
1
 93
5
 72
2
 10
140.0
 20
90.0
 40
7.25
 50
0.0
 51
360.0
 73
1
 72
2
 10
115.0000891911591054
 20
40.0001783823182038
 40
7.25
 50
0.0
 51
360.0
 73
1
 72
2
 10
135.0
 20
-10.0
 40
7.25
 50
0.0
 51
360.0
 73
1
 72
2
 10
159.9997155749006197
 20
-40.0004266376490492
 40
7.25
 50
0.0
 51
360.0
 73
1
 72
2
 10
140.0
 20
-70.0
 40
7.25
 50
0.0
 51
360.0
 73
1
 97
0
 75
0
 76
1
 98
0
  0
MTEXT
  5
4BC
100
AcDbEntity
100
AcDbMText
  8
0-UGrid Triangle Idx
 62
256
370
15
  6
ByLayer
 10
155.8306555706566314
 20
119.2212725696178381
 30
0.0
 40
5.0
 41
100.0
 71
5
 72
2
  1
7
  7
greeks
 50
0.0
 73
0
 44
1.0
  0
MTEXT
  5
4BD
100
AcDbEntity
100
AcDbMText
  8
0-UGrid Triangle Idx
 62
256
370
15
  6
ByLayer
 10
188.4615513392906792
 20
91.5756525434139803
 30
0.0
 40
5.0
 41
100.0
 71
5
 72
2
  1
6
  7
greeks
 50
0.0
 73
0
 44
1.0
  0
MTEXT
  5
4BE
100
AcDbEntity
100
AcDbMText
  8
0-UGrid Triangle Idx
 62
256
370
15
  6
ByLayer
 10
110.056760117433825
 20
107.4378935420555763
 30
0.0
 40
5.0
 41
100.0
 71
5
 72
2
  1
8
  7
greeks
 50
0.0
 73
0
 44
1.0
  0
MTEXT
  5
4BF
100
AcDbEntity
100
AcDbMText
  8
0-UGrid Triangle Idx
 62
256
370
15
  6
ByLayer
 10
94.1945191187922575
 20
56.3523231977330994
 30
0.0
 40
5.0
 41
100.0
 71
5
 72
2
  1
9
  7
greeks
 50
0.0
 73
0
 44
1.0
  0
MTEXT
  5
4C0
100
AcDbEntity
100
AcDbMText
  8
0-UGrid Triangle Idx
 62
256
370
15
  6
ByLayer
 10
179.3974136257813257
 20
48.9742052899195457
 30
0.0
 40
5.0
 41
100.0
 71
5
 72
2
  1
5
  7
greeks
 50
0.0
 73
0
 44
1.0
  0
MTEXT
  5
4C1
100
AcDbEntity
100
AcDbMText
  8
0-UGrid Triangle Idx
 62
256
370
15
  6
ByLayer
 10
136.3427594866114418
 20
24.047826577768511
 30
0.0
 40
5.0
 41
100.0
 71
5
 72
2
  1
11
  7
greeks
 50
0.0
 73
0
 44
1.0
  0
MTEXT
  5
4C2
100
AcDbEntity
100
AcDbMText
  8
0-UGrid Triangle Idx
 62
256
370
15
  6
ByLayer
 10
209.7622749660378929
 20
-1.784965905733471
 30
0.0
 40
5.0
 41
100.0
 71
5
 72
2
  1
4
  7
greeks
 50
0.0
 73
0
 44
1.0
  0
MTEXT
  5
4C3
100
AcDbEntity
100
AcDbMText
  8
0-UGrid Triangle Idx
 62
256
370
15
  6
ByLayer
 10
46.6077961228675974
 20
23.1414128064175415
 30
0.0
 40
5.0
 41
100.0
 71
5
 72
2
  1
10
  7
greeks
 50
0.0
 73
0
 44
1.0
  0
MTEXT
  5
4C4
100
AcDbEntity
100
AcDbMText
  8
0-UGrid Triangle Idx
 62
256
370
15
  6
ByLayer
 10
185.2891031395623713
 20
-43.0267925022015305
 30
0.0
 40
5.0
 41
100.0
 71
5
 72
2
  1
3
  7
greeks
 50
0.0
 73
0
 44
1.0
  0
MTEXT
  5
4C5
100
AcDbEntity
100
AcDbMText
  8
0-UGrid Triangle Idx
 62
256
370
15
  6
ByLayer
 10
136.3427594866113282
 20
-28.52417216058641
 30
0.0
 40
5.0
 41
100.0
 71
5
 72
2
  1
2
  7
greeks
 50
0.0
 73
0
 44
1.0
  0
MTEXT
  5
4C6
100
AcDbEntity
100
AcDbMText
  8
0-UGrid Triangle Idx
 62
256
370
15
  6
ByLayer
 10
52.4994856366487497
 20
-27.617758389235437
 30
0.0
 40
5.0
 41
100.0
 71
5
 72
2
  1
0
  7
greeks
 50
0.0
 73
0
 44
1.0
  0
MTEXT
  5
4C7
100
AcDbEntity
100
AcDbMText
  8
0-UGrid Triangle Idx
 62
256
370
15
  6
ByLayer
 10
95.5541397758186974
 20
-47.1056544732807936
 30
0.0
 40
5.0
 41
100.0
 71
5
 72
2
  1
1
  7
greeks
 50
0.0
 73
0
 44
1.0
  0
MTEXT
  5
4C8
100
AcDbEntity
100
AcDbMText
  8
1-UGrid Vertex Idx
 62
256
370
-1
  6
ByLayer
 10
-4.3945312500000435
 20
4.3945312500000435
 30
0.0
 40
5.0
 41
100.0
 71
1
 72
2
  1
0
  7
normal
 50
0.0
 73
0
 44
1.0
  0
MTEXT
  5
4C9
100
AcDbEntity
100
AcDbMText
  8
1-UGrid Vertex Idx
 62
256
370
-1
  6
ByLayer
 10
54.6875000000005471
 20
-72.7539062500007248
 30
0.0
 40
5.0
 41
100.0
 71
1
 72
2
  1
1
  7
normal
 50
0.0
 73
0
 44
1.0
  0
MTEXT
  5
4CA
100
AcDbEntity
100
AcDbMText
  8
1-UGrid Vertex Idx
 62
256
370
-1
  6
ByLayer
 10
141.1132812500013927
 20
-74.218750000000739
 30
0.0
 40
5.0
 41
100.0
 71
1
 72
2
  1
3
  7
normal
 50
0.0
 73
0
 44
1.0
  0
MTEXT
  5
4CB
100
AcDbEntity
100
AcDbMText
  8
1-UGrid Vertex Idx
 62
256
370
-1
  6
ByLayer
 10
243.1640625000024158
 20
-61.5234375000006111
 30
0.0
 40
5.0
 41
100.0
 71
1
 72
2
  1
5
  7
normal
 50
0.0
 73
0
 44
1.0
  0
MTEXT
  5
4CC
100
AcDbEntity
100
AcDbMText
  8
1-UGrid Vertex Idx
 62
256
370
-1
  6
ByLayer
 10
134.7656250000013358
 20
155.2734375000015348
 30
0.0
 40
5.0
 41
100.0
 71
1
 72
2
  1
9
  7
normal
 50
0.0
 73
0
 44
1.0
  0
MTEXT
  5
4CD
100
AcDbEntity
100
AcDbMText
  8
1-UGrid Vertex Idx
 62
256
370
-1
  6
ByLayer
 10
62.5000000000008455
 20
36.7187500000004974
 30
0.0
 40
5.0
 41
100.0
 71
1
 72
2
  1
13
  7
normal
 50
0.0
 73
0
 44
1.0
  0
MTEXT
  5
4CE
100
AcDbEntity
100
AcDbMText
  8
1-UGrid Vertex Idx
 62
256
370
-1
  6
ByLayer
 10
204.2968750000027569
 20
24.609375000000334
 30
0.0
 40
5.0
 41
100.0
 71
1
 72
2
  1
17
  7
normal
 50
0.0
 73
0
 44
1.0
  0
MTEXT
  5
4CF
100
AcDbEntity
100
AcDbMText
  8
1-UGrid Vertex Idx
 62
256
370
-1
  6
ByLayer
 10
92.0
 20
77.0
 30
0.0
 40
5.0
 41
100.0
 71
1
 72
2
  1
12
  7
normal
 50
0.0
 73
0
 44
1.0
  0
MTEXT
  5
4D0
100
AcDbEntity
100
AcDbMText
  8
1-UGrid Vertex Idx
 62
256
370
-1
  6
ByLayer
 10
133.0
 20
-16.0
 30
0.0
 40
5.0
 41
100.0
 71
1
 72
2
  1
15
  7
normal
 50
0.0
 73
0
 44
1.0
  0
MTEXT
  5
4D1
100
AcDbEntity
100
AcDbMText
  8
1-UGrid Vertex Idx
 62
256
370
-1
  6
ByLayer
 10
105.73567994187664
 20
37.7278502906245166
 30
0.0
 40
5.0
 41
100.0
 71
1
 72
2
  1
11
  7
normal
 50
0.0
 73
0
 44
1.0
  0
MTEXT
  5
4D2
100
AcDbEntity
100
AcDbMText
  8
1-UGrid Vertex Idx
 62
256
370
-1
  6
ByLayer
 10
45.3924356096011437
 20
86.2214684672021718
 30
0.0
 40
5.0
 41
100.0
 71
1
 72
2
  1
10
  7
normal
 50
0.0
 73
0
 44
1.0
  0
MTEXT
  5
4D3
100
AcDbEntity
100
AcDbMText
  8
1-UGrid Vertex Idx
 62
256
370
-1
  6
ByLayer
 10
165.1414925312053299
 20
44.6676598784014445
 30
0.0
 40
5.0
 41
100.0
 71
1
 72
2
  1
19
  7
normal
 50
0.0
 73
0
 44
1.0
  0
MTEXT
  5
4D4
100
AcDbEntity
100
AcDbMText
  8
1-UGrid Vertex Idx
 62
256
370
-1
  6
ByLayer
 10
162.4571379712058956
 20
-39.2184201216014188
 30
0.0
 40
5.0
 41
100.0
 71
1
 72
2
  1
14
  7
normal
 50
0.0
 73
0
 44
1.0
  0
MTEXT
  5
4D5
100
AcDbEntity
100
AcDbMText
  8
1-UGrid Vertex Idx
 62
256
370
-1
  6
ByLayer
 10
108.517764522053838
 20
-39.1882183094548893
 30
0.0
 40
5.0
 41
100.0
 71
1
 72
2
  1
16
  7
normal
 50
0.0
 73
0
 44
1.0
  0
MTEXT
  5
4D6
100
AcDbEntity
100
AcDbMText
  8
1-UGrid Vertex Idx
 62
256
370
-1
  6
ByLayer
 10
82.4432394240034654
 20
-11.274289152000474
 30
0.0
 40
5.0
 41
100.0
 71
1
 72
2
  1
2
  7
normal
 50
0.0
 73
0
 44
1.0
  0
MTEXT
  5
4D7
100
AcDbEntity
100
AcDbMText
  8
1-UGrid Vertex Idx
 62
256
370
-1
  6
ByLayer
 10
184.6835937280083613
 20
-6.7108864000003035
 30
0.0
 40
5.0
 41
100.0
 71
1
 72
2
  1
4
  7
normal
 50
0.0
 73
0
 44
1.0
  0
MTEXT
  5
4D8
100
AcDbEntity
100
AcDbMText
  8
1-UGrid GlobalIdx Triangles
 62
256
370
-1
  6
ByLayer
 10
184.6835937280083613
 20
-6.7108864000003035
 30
0.0
 40
5.0
 41
100.0
 71
1
 72
2
  1
4
  7
normal
 50
0.0
 73
0
 44
1.0
  0
MTEXT
  5
4D9
100
AcDbEntity
100
AcDbMText
  8
1-UGrid GlobalIdx Triangles
 62
256
370
-1
  6
ByLayer
 10
52.755019316493339
 20
-26.5040026106983753
 30
0.0
 40
5.0
 41
100.0
 71
5
 72
2
  1
0
  7
greeks
 50
0.0
 73
0
 44
1.0
  0
MTEXT
  5
4DA
100
AcDbEntity
100
AcDbMText
  8
1-UGrid GlobalIdx Triangles
 62
256
370
-1
  6
ByLayer
 10
95.4531946508173093
 20
-47.971295329866301
 30
0.0
 40
5.0
 41
100.0
 71
5
 72
2
  1
1
  7
greeks
 50
0.0
 73
0
 44
1.0
  0
MTEXT
  5
4DB
100
AcDbEntity
100
AcDbMText
  8
1-UGrid GlobalIdx Triangles
 62
256
370
-1
  6
ByLayer
 10
186.3298662704316371
 20
-45.356139312035836
 30
0.0
 40
5.0
 41
100.0
 71
5
 72
2
  1
3
  7
greeks
 50
0.0
 73
0
 44
1.0
  0
MTEXT
  5
4DC
100
AcDbEntity
100
AcDbMText
  8
1-UGrid GlobalIdx Triangles
 62
256
370
-1
  6
ByLayer
 10
209.6811173848448959
 20
-3.8755806196136904
 30
0.0
 40
5.0
 41
100.0
 71
5
 72
2
  1
4
  7
greeks
 50
0.0
 73
0
 44
1.0
  0
MTEXT
  5
4DD
100
AcDbEntity
100
AcDbMText
  8
1-UGrid GlobalIdx Triangles
 62
256
370
-1
  6
ByLayer
 10
188.0
 20
90.4090909999999894
 30
0.0
 40
5.0
 41
100.0
 71
5
 72
2
  1
6
  7
greeks
 50
0.0
 73
0
 44
1.0
  0
MTEXT
  5
4DE
100
AcDbEntity
100
AcDbMText
  8
1-UGrid GlobalIdx Triangles
 62
256
370
-1
  6
ByLayer
 10
154.9479940564648643
 20
117.7642173001495252
 30
0.0
 40
5.0
 41
100.0
 71
5
 72
2
  1
7
  7
greeks
 50
0.0
 73
0
 44
1.0
  0
MTEXT
  5
4DF
100
AcDbEntity
100
AcDbMText
  8
1-UGrid GlobalIdx Triangles
 62
256
370
-1
  6
ByLayer
 10
109.292600297177728
 20
106.186921609213357
 30
0.0
 40
5.0
 41
100.0
 71
5
 72
2
  1
8
  7
greeks
 50
0.0
 73
0
 44
1.0
  0
MTEXT
  5
4E0
100
AcDbEntity
100
AcDbMText
  8
1-UGrid GlobalIdx Triangles
 62
256
370
-1
  6
ByLayer
 10
47.0728083209512889
 20
22.1671890683508188
 30
0.0
 40
5.0
 41
100.0
 71
5
 72
2
  1
10
  7
greeks
 50
0.0
 73
0
 44
1.0
  0
MTEXT
  5
4E1
100
AcDbEntity
100
AcDbMText
  8
1-UGrid GlobalIdx Triangles
 62
256
370
-1
  6
ByLayer
 10
70.0
 20
68.4090909999999894
 30
0.0
 40
5.0
 41
100.0
 71
5
 72
2
  1
12
  7
greeks
 50
0.0
 73
0
 44
1.0
  0
MTEXT
  5
4E2
100
AcDbEntity
100
AcDbMText
  8
1-UGrid GlobalIdx Triangles
 62
256
370
-1
  6
ByLayer
 10
90.5471619613676211
 20
23.0040389940566072
 30
0.0
 40
5.0
 41
100.0
 71
5
 72
2
  1
13
  7
greeks
 50
0.0
 73
0
 44
1.0
  0
MTEXT
  5
4E3
100
AcDbEntity
100
AcDbMText
  8
1-UGrid GlobalIdx Triangles
 62
256
370
-1
  6
ByLayer
 10
115.2844457652311689
 20
73.7840924858846421
 30
0.0
 40
5.0
 41
100.0
 71
5
 72
2
  1
14
  7
greeks
 50
0.0
 73
0
 44
1.0
  0
MTEXT
  5
4E4
100
AcDbEntity
100
AcDbMText
  8
1-UGrid GlobalIdx Triangles
 62
256
370
-1
  6
ByLayer
 10
93.4593997028238874
 20
54.1013822332842054
 30
0.0
 40
5.0
 41
100.0
 71
5
 72
2
  1
15
  7
greeks
 50
0.0
 73
0
 44
1.0
  0
MTEXT
  5
4E5
100
AcDbEntity
100
AcDbMText
  8
1-UGrid GlobalIdx Triangles
 62
256
370
-1
  6
ByLayer
 10
113.2224475482913562
 20
-19.0861648692422179
 30
0.0
 40
5.0
 41
100.0
 71
5
 72
2
  1
16
  7
greeks
 50
0.0
 73
0
 44
1.0
  0
MTEXT
  5
4E6
100
AcDbEntity
100
AcDbMText
  8
1-UGrid GlobalIdx Triangles
 62
256
370
-1
  6
ByLayer
 10
138.0
 20
-48.5909089999999964
 30
0.0
 40
5.0
 41
100.0
 71
5
 72
2
  1
17
  7
greeks
 50
0.0
 73
0
 44
1.0
  0
MTEXT
  5
4E7
100
AcDbEntity
100
AcDbMText
  8
1-UGrid GlobalIdx Triangles
 62
256
370
-1
  6
ByLayer
 10
158.3186163447253989
 20
-19.7288656121842862
 30
0.0
 40
5.0
 41
100.0
 71
5
 72
2
  1
18
  7
greeks
 50
0.0
 73
0
 44
1.0
  0
MTEXT
  5
4E8
100
AcDbEntity
100
AcDbMText
  8
1-UGrid GlobalIdx Triangles
 62
256
370
-1
  6
ByLayer
 10
136.6810246656762331
 20
-30.2263110802377781
 30
0.0
 40
5.0
 41
100.0
 71
5
 72
2
  1
19
  7
greeks
 50
0.0
 73
0
 44
1.0
  0
MTEXT
  5
4E9
100
AcDbEntity
100
AcDbMText
  8
1-UGrid GlobalIdx Triangles
 62
256
370
-1
  6
ByLayer
 10
160.8090817236268322
 20
67.624877032689966
 30
0.0
 40
5.0
 41
100.0
 71
5
 72
2
  1
20
  7
greeks
 50
0.0
 73
0
 44
1.0
  0
MTEXT
  5
4EA
100
AcDbEntity
100
AcDbMText
  8
1-UGrid GlobalIdx Triangles
 62
256
370
-1
  6
ByLayer
 10
182.2056606240723227
 20
18.1904782213968303
 30
0.0
 40
5.0
 41
100.0
 71
5
 72
2
  1
21
  7
greeks
 50
0.0
 73
0
 44
1.0
  0
MTEXT
  5
4EB
100
AcDbEntity
100
AcDbMText
  8
1-UGrid GlobalIdx Triangles
 62
256
370
-1
  6
ByLayer
 10
202.0490460624087348
 20
55.0386541500747342
 30
0.0
 40
5.0
 41
100.0
 71
5
 72
2
  1
22
  7
greeks
 50
0.0
 73
0
 44
1.0
  0
MTEXT
  5
4EC
100
AcDbEntity
100
AcDbMText
  8
1-UGrid GlobalIdx Triangles
 62
256
370
-1
  6
ByLayer
 10
177.8138722139687218
 20
45.6659349821697518
 30
0.0
 40
5.0
 41
100.0
 71
5
 72
2
  1
23
  7
greeks
 50
0.0
 73
0
 44
1.0
  0
MTEXT
  5
4ED
100
AcDbEntity
100
AcDbMText
  8
1-UGrid GlobalIdx Triangles
 62
256
370
-1
  6
ByLayer
 10
113.2362555720659714
 20
4.5933406285289973
 30
0.0
 40
5.0
 41
100.0
 71
5
 72
2
  1
24
  7
greeks
 50
0.0
 73
0
 44
1.0
  0
MTEXT
  5
4EE
100
AcDbEntity
100
AcDbMText
  8
1-UGrid GlobalIdx Triangles
 62
256
370
-1
  6
ByLayer
 10
137.645075780090167
 20
55.306446126300564
 30
0.0
 40
5.0
 41
100.0
 71
5
 72
2
  1
25
  7
greeks
 50
0.0
 73
0
 44
1.0
  0
MTEXT
  5
4EF
100
AcDbEntity
100
AcDbMText
  8
1-UGrid GlobalIdx Triangles
 62
256
370
-1
  6
ByLayer
 10
158.2169390787526879
 20
4.3318250267459346
 30
0.0
 40
5.0
 41
100.0
 71
5
 72
2
  1
26
  7
greeks
 50
0.0
 73
0
 44
1.0
  0
MTEXT
  5
4F0
100
AcDbEntity
100
AcDbMText
  8
1-UGrid GlobalIdx Triangles
 62
256
370
-1
  6
ByLayer
 10
136.0717979197631564
 20
23.8408889197624134
 30
0.0
 40
5.0
 41
100.0
 71
5
 72
2
  1
27
  7
greeks
 50
0.0
 73
0
 44
1.0
  0
MTEXT
  5
4F1
100
AcDbEntity
100
AcDbMText
  8
0-UGrid Vertex Idx
 62
256
370
-1
  6
ByLayer
 10
-4.3945312500000435
 20
4.3945312500000435
 30
0.0
 40
5.0
 41
100.0
 71
1
 72
2
  1
0
  7
normal
 50
0.0
 73
0
 44
1.0
  0
MTEXT
  5
4F2
100
AcDbEntity
100
AcDbMText
  8
0-UGrid Vertex Idx
 62
256
370
-1
  6
ByLayer
 10
54.6875000000005471
 20
-72.7539062500007248
 30
0.0
 40
5.0
 41
100.0
 71
1
 72
2
  1
1
  7
normal
 50
0.0
 73
0
 44
1.0
  0
MTEXT
  5
4F3
100
AcDbEntity
100
AcDbMText
  8
0-UGrid Vertex Idx
 62
256
370
-1
  6
ByLayer
 10
141.1132812500013927
 20
-74.218750000000739
 30
0.0
 40
5.0
 41
100.0
 71
1
 72
2
  1
3
  7
normal
 50
0.0
 73
0
 44
1.0
  0
MTEXT
  5
4F4
100
AcDbEntity
100
AcDbMText
  8
0-UGrid Vertex Idx
 62
256
370
-1
  6
ByLayer
 10
243.1640625000024158
 20
-61.5234375000006111
 30
0.0
 40
5.0
 41
100.0
 71
1
 72
2
  1
5
  7
normal
 50
0.0
 73
0
 44
1.0
  0
MTEXT
  5
4F5
100
AcDbEntity
100
AcDbMText
  8
0-UGrid Vertex Idx
 62
256
370
-1
  6
ByLayer
 10
223.6328125000022169
 20
62.9882812500006253
 30
0.0
 40
5.0
 41
100.0
 71
1
 72
2
  1
6
  7
normal
 50
0.0
 73
0
 44
1.0
  0
MTEXT
  5
4F6
100
AcDbEntity
100
AcDbMText
  8
0-UGrid Vertex Idx
 62
256
370
-1
  6
ByLayer
 10
202.1484375000020179
 20
124.5117187500012363
 30
0.0
 40
5.0
 41
100.0
 71
1
 72
2
  1
8
  7
normal
 50
0.0
 73
0
 44
1.0
  0
MTEXT
  5
4F7
100
AcDbEntity
100
AcDbMText
  8
0-UGrid Vertex Idx
 62
256
370
-1
  6
ByLayer
 10
134.7656250000013358
 20
155.2734375000015348
 30
0.0
 40
5.0
 41
100.0
 71
1
 72
2
  1
9
  7
normal
 50
0.0
 73
0
 44
1.0
  0
MTEXT
  5
4F8
100
AcDbEntity
100
AcDbMText
  8
0-UGrid Vertex Idx
 62
256
370
-1
  6
ByLayer
 10
45.3924356096011437
 20
86.2214684672021718
 30
0.0
 40
5.0
 41
100.0
 71
1
 72
2
  1
10
  7
normal
 50
0.0
 73
0
 44
1.0
  0
MTEXT
  5
4F9
100
AcDbEntity
100
AcDbMText
  8
0-UGrid Vertex Idx
 62
256
370
-1
  6
ByLayer
 10
82.4432394240034654
 20
-11.274289152000474
 30
0.0
 40
5.0
 41
100.0
 71
1
 72
2
  1
2
  7
normal
 50
0.0
 73
0
 44
1.0
  0
MTEXT
  5
4FA
100
AcDbEntity
100
AcDbMText
  8
0-UGrid Vertex Idx
 62
256
370
-1
  6
ByLayer
 10
184.6835937280083613
 20
-6.7108864000003035
 30
0.0
 40
5.0
 41
100.0
 71
1
 72
2
  1
4
  7
normal
 50
0.0
 73
0
 44
1.0
  0
LINE
  5
4FB
100
AcDbEntity
100
AcDbLine
  8
0-UGrid Mark UpAdj Edges
 62
256
370
-1
  6
ByLayer
 10
140.0
 20
90.0
 30
0.0
 11
200.0
 21
120.0
 31
0.0
  0
LINE
  5
4FC
100
AcDbEntity
100
AcDbLine
  8
0-UGrid Mark UpAdj Edges
 62
256
370
-1
  6
ByLayer
 10
140.0
 20
90.0
 30
0.0
 11
220.0
 21
60.0
 31
0.0
  0
LINE
  5
4FD
100
AcDbEntity
100
AcDbLine
  8
0-UGrid Mark UpAdj Edges
 62
256
370
-1
  6
ByLayer
 10
140.0
 20
90.0
 30
0.0
 11
180.0
 21
-10.0
 31
0.0
  0
LINE
  5
4FE
100
AcDbEntity
100
AcDbLine
  8
0-UGrid Mark UpAdj Edges
 62
256
370
-1
  6
ByLayer
 10
140.0
 20
90.0
 30
0.0
 11
90.0
 21
-10.0
 31
0.0
  0
LINE
  5
4FF
100
AcDbEntity
100
AcDbLine
  8
0-UGrid Mark UpAdj Edges
 62
256
370
-1
  6
ByLayer
 10
140.0
 20
90.0
 30
0.0
 11
50.0
 21
80.0
 31
0.0
  0
LINE
  5
500
100
AcDbEntity
100
AcDbLine
  8
0-UGrid Mark UpAdj Edges
 62
256
370
-1
  6
ByLayer
 10
140.0
 20
90.0
 30
0.0
 11
130.0
 21
150.0
 31
0.0
  0
HATCH
  5
501
  8
0-UGrid Mark UpAdj Vertex
 62
256
370
-1
  6
ByLayer
100
AcDbEntity
100
AcDbHatch
 10
0.0
 20
0.0
 30
0.0
210
0.0
220
0.0
230
1.0
  2
SOLID
 70
1
 71
0
 91
1
 92
1
 93
1
 72
2
 10
140.0
 20
90.0
 40
7.25
 50
0.0
 51
360.0
 73
1
 97
0
 75
0
 76
1
 98
0
  0
MTEXT
  5
502
100
AcDbEntity
100
AcDbMText
  8
0-UGrid Vertex Idx
 62
256
370
-1
  6
ByLayer
 10
142.0
 20
99.0
 30
0.0
 40
5.0
 41
100.0
 71
1
 72
2
  1
7
  7
normal
 50
0.0
 73
0
 44
1.0
  0
LINE
  5
503
100
AcDbEntity
100
AcDbLine
  8
0-UGrid Mark DownAdj Edges
 62
256
370
-1
  6
ByLayer
 10
140.0
 20
90.0
 30
0.0
 11
200.0
 21
120.0
 31
0.0
  0
LINE
  5
504
100
AcDbEntity
100
AcDbLine
  8
0-UGrid Mark DownAdj Edges
 62
256
370
-1
  6
ByLayer
 10
200.0
 20
120.0
 30
0.0
 11
220.0
 21
60.0
 31
0.0
  0
HATCH
  5
505
  8
0-UGrid Mark DownAdj Vertices
 62
256
370
-1
  6
ByLayer
100
AcDbEntity
100
AcDbHatch
 10
0.0
 20
0.0
 30
0.0
210
0.0
220
0.0
230
1.0
  2
SOLID
 70
1
 71
0
 91
1
 92
1
 93
3
 72
2
 10
200.0
 20
120.0
 40
7.25
 50
0.0
 51
360.0
 73
1
 72
2
 10
140.0
 20
90.0
 40
7.25
 50
0.0
 51
360.0
 73
1
 72
2
 10
220.0
 20
60.0
 40
7.25
 50
0.0
 51
360.0
 73
1
 97
0
 75
0
 76
1
 98
0
  0
HATCH
  5
506
  8
1-UGrid Mark DownAdjVertices
 62
256
370
-1
  6
ByLayer
100
AcDbEntity
100
AcDbHatch
 10
0.0
 20
0.0
 30
0.0
210
0.0
220
0.0
230
1.0
  2
SOLID
 70
1
 71
0
 91
1
 92
1
 93
3
 72
2
 10
200.0
 20
120.0
 40
7.25
 50
0.0
 51
360.0
 73
1
 72
2
 10
140.0
 20
90.0
 40
7.25
 50
0.0
 51
360.0
 73
1
 72
2
 10
220.0
 20
60.0
 40
7.25
 50
0.0
 51
360.0
 73
1
 97
0
 75
0
 76
1
 98
0
  0
HATCH
  5
507
  8
1-UGrid Mark DownAdjVertices
 62
256
370
-1
  6
ByLayer
100
AcDbEntity
100
AcDbHatch
 10
0.0
 20
0.0
 30
0.0
210
0.0
220
0.0
230
1.0
  2
SOLID
 70
1
 71
0
 91
1
 92
1
 93
1
 72
2
 10
180.0000175342504178
 20
74.9999934246560969
 40
7.25
 50
0.0
 51
360.0
 73
1
 97
0
 75
0
 76
1
 98
0
  0
MTEXT
  5
508
100
AcDbEntity
100
AcDbMText
  8
1-UGrid Vertex Idx
 62
256
370
-1
  6
ByLayer
 10
223.6328125000022169
 20
62.9882812500006253
 30
0.0
 40
5.0
 41
100.0
 71
1
 72
2
  1
6
  7
normal
 50
0.0
 73
0
 44
1.0
  0
MTEXT
  5
509
100
AcDbEntity
100
AcDbMText
  8
1-UGrid Vertex Idx
 62
256
370
-1
  6
ByLayer
 10
202.1484375000020179
 20
124.5117187500012363
 30
0.0
 40
5.0
 41
100.0
 71
1
 72
2
  1
8
  7
normal
 50
0.0
 73
0
 44
1.0
  0
MTEXT
  5
50A
100
AcDbEntity
100
AcDbMText
  8
1-UGrid Vertex Idx
 62
256
370
-1
  6
ByLayer
 10
181.2500000000024443
 20
82.0312500000011084
 30
0.0
 40
5.0
 41
100.0
 71
1
 72
2
  1
18
  7
normal
 50
0.0
 73
0
 44
1.0
  0
MTEXT
  5
50B
100
AcDbEntity
100
AcDbMText
  8
1-UGrid Vertex Idx
 62
256
370
-1
  6
ByLayer
 10
142.0
 20
99.0
 30
0.0
 40
5.0
 41
100.0
 71
1
 72
2
  1
7
  7
normal
 50
0.0
 73
0
 44
1.0
  0
ENDSEC
  0
SECTION
  2
OBJECTS
  0
DICTIONARY
  5
C
100
AcDbDictionary
280
0
281
1
  3
ACAD_GROUP
350
D
  3
ACAD_LAYOUT
350
1A
  3
ACAD_MLINESTYLE
350
17
  3
ACAD_PLOTSETTINGS
350
19
  3
ACAD_PLOTSTYLENAME
350
E
  3
AcDbVariableDictionary
350
50C
  0
DICTIONARY
  5
D
100
AcDbDictionary
280
0
281
1
  0
ACDBDICTIONARYWDFLT
  5
E
100
AcDbDictionary
281
1
  3
Normal
350
F
100
AcDbDictionaryWithDefault
340
F
  0
ACDBPLACEHOLDER
  5
F
  0
DICTIONARY
  5
17
100
AcDbDictionary
280
0
281
1
  3
Standard
350
18
  0
MLINESTYLE
  5
18
100
AcDbMlineStyle
  2
STANDARD
 70
0
  3

 62
256
 51
90.0
 52
90.0
 71
2
 49
0.5
 62
256
  6
BYLAYER
 49
-0.5
 62
256
  6
BYLAYER
  0
DICTIONARY
  5
19
100
AcDbDictionary
280
0
281
1
  0
DICTIONARY
  5
1A
100
AcDbDictionary
281
1
  3
Layout1
350
1E
  3
Layout2
350
26
  3
Model
350
22
  0
LAYOUT
  5
1E
100
AcDbPlotSettings
  1

  2
C:\Program Files\AutoCAD 2002\plotters\DWF ePlot (optimized for plotting).pc3
  4

  6

 40
0.0
 41
0.0
 42
0.0
 43
0.0
 44
0.0
 45
0.0
 46
0.0
 47
0.0
 48
0.0
 49
0.0
140
0.0
141
0.0
142
1.0
143
1.0
 70
688
 72
0
 73
0
 74
5
  7

 75
16
147
1.0
148
0.0
149
0.0
100
AcDbLayout
  1
Layout1
 70
1
 71
1
 10
0.0
 20
0.0
 11
420.0
 21
297.0
 12
0.0
 22
0.0
 32
0.0
 14
100000000000000000000.0
 24
100000000000000000000.0
 34
100000000000000000000.0
 15
-100000000000000000000.0
 25
-100000000000000000000.0
 35
-100000000000000000000.0
146
0.0
 13
0.0
 23
0.0
 33
0.0
 16
1.0
 26
0.0
 36
0.0
 17
0.0
 27
1.0
 37
0.0
 76
0
330
1B
  0
LAYOUT
  5
22
100
AcDbPlotSettings
  1

  2
C:\Program Files\AutoCAD 2002\plotters\DWF ePlot (optimized for plotting).pc3
  4

  6

 40
0.0
 41
0.0
 42
0.0
 43
0.0
 44
0.0
 45
0.0
 46
0.0
 47
0.0
 48
0.0
 49
0.0
140
0.0
141
0.0
142
1.0
143
1.0
 70
1712
 72
0
 73
0
 74
0
  7

 75
0
147
1.0
148
0.0
149
0.0
100
AcDbLayout
  1
Model
 70
1
 71
0
 10
0.0
 20
0.0
 11
12.0
 21
9.0
 12
0.0
 22
0.0
 32
0.0
 14
0.0
 24
0.0
 34
0.0
 15
0.0
 25
0.0
 35
0.0
146
0.0
 13
0.0
 23
0.0
 33
0.0
 16
1.0
 26
0.0
 36
0.0
 17
0.0
 27
1.0
 37
0.0
 76
0
330
1F
  0
LAYOUT
  5
26
100
AcDbPlotSettings
  1

  2
C:\Program Files\AutoCAD 2002\plotters\DWF ePlot (optimized for plotting).pc3
  4

  6

 40
0.0
 41
0.0
 42
0.0
 43
0.0
 44
0.0
 45
0.0
 46
0.0
 47
0.0
 48
0.0
 49
0.0
140
0.0
141
0.0
142
1.0
143
1.0
 70
688
 72
0
 73
0
 74
5
  7

 75
16
147
1.0
148
0.0
149
0.0
100
AcDbLayout
  1
Layout2
 70
1
 71
2
 10
0.0
 20
0.0
 11
12.0
 21
9.0
 12
0.0
 22
0.0
 32
0.0
 14
0.0
 24
0.0
 34
0.0
 15
0.0
 25
0.0
 35
0.0
146
0.0
 13
0.0
 23
0.0
 33
0.0
 16
1.0
 26
0.0
 36
0.0
 17
0.0
 27
1.0
 37
0.0
 76
0
330
23
  0
DICTIONARY
  5
50C
100
AcDbDictionary
281
1
  3
DIMASSOC
350
50E
  3
HIDETEXT
350
50D
  0
DICTIONARYVAR
  5
50D
100
DictionaryVariables
280
0
  1
2
  0
DICTIONARYVAR
  5
50E
100
DictionaryVariables
280
0
  1
1
  0
ENDSEC
  0
EOF
